Song name
# A B C D E F G H I J K L M N O P Q R S T U V W X Y Z

Oar - King Of The Thing tab

O.A.R.
King of the Thing

Intro

e-------3---1---|
b---1-------1---|
g---0-------2---|
d---2---x---3---|
a---3---2---3---|
E-------3---1---|

Verse

e---7-/-8----3(10)---1(8)----|
b---7-/-8----3(12)---1(10)---|
g---8-/-9----4(12)---2(10)---|
d---9-/-10---5(12)---3(10)---|
a---9-/-10---5(10)---3(8)----|
E---7-/-8----3(10)---1(8)----|

Chorus

e-------3---1---|
b---1-------1---|
g---0-------2---|
d---2---x---3---|
a---3---2---3---|
E-------3---1---|

Bridge

e------(3)------3---|
b---1---1---1-------|
g---2---2---2-------|
d---2---3---3---x---|
a---------------2---|
E---------------3---|


Questions/Comments:
joshpwc@yahoo.com
OARSA.ORG
Tap to rate this tab
# A B C D E F G H I J K L M N O P Q R S T U V W X Y Z