Song name
# A B C D E F G H I J K L M N O P Q R S T U V W X Y Z

Oar - About Mr Brown tab

Help us improve GuitareTab! Take a short survey!
Hey guys, this is my first tab, usually I rely on others tabs for stuff, but I can't 
too many good OAR guitar tabs...plus there are even less OAR bass tabs out there :(.


This is a little better than the other tab on ultimate guitar.  Just repeat this for a 
and you should be fine.  Listen to the song for strumming.

Verse:
-0-0-0-0-0-|
-0-0-0-0-0-|
-5-9-0-0-0-|
-5-9-7-3-5-|
-3-7-7-3-5-|
-3-7-5-1-3-|

Chorus:
-0-0-----------|
-0-0-----------|
-0-0-----------|
-3-5---5---4---|
-1-5-3---2---0-|
-1-3-----------|
Related for About Mr Brown tab