Song name
# A B C D E F G H I J K L M N O P Q R S T U V W X Y Z

Oar - Old Man Time tab

Help us improve GuitareTab! Take a short survey!
----------------------------------------------------------------------------
			     SONG NAME - Band Name
----------------------------------------------------------------------------Tabbed by: KC$

Tuning:Standard

Verse:

e|-------------------------------------------------------------------------|
B|-------------------------------------------------------------------------|
G|------6-6-9-6------------------------------------------------------------|
D|------7-7-7-7----7-7--7-9-7-7-----6-6-7-6--6-----------------------------|
A|-----------------9-9--9-9-9-9-----7-7-7-7--7-----------------------------|
E|-------------------------------------------------------------------------|


Chorus:

e|-----------0-----|
B|-------2---0-----|
G|---6---2---2-----|
D|---7---4---2-----|
A|---7---4---1-----|
E|---5---2---0-----|
The strumming is pretty easy to figure out.

Verse

Chorus

Solo: 

e|-------------------------------------------------------------------------|
B|-------------------------------------------------------------------------|
G|-------------------------------------------------------------------------|
D|--------7---7h9p7---7~----------7----------------------------------------|
A|----7h9---9-------9---------7h9---9-7h9p7-------------7------------------|
E|------------------------------------------9-7-----7h9---9-7h9-4-0--------|


e|-------------------------------------------------------------------------|
B|-------------------------------------------------------------------------|
G|----------7--------9-------9/11\9--7-6/7\6---------7/9-------------------|
D|----9-7-----9-7------9-7-------------------7-9-7-------------------------|
A|--------9-------9--------9-----------------------7-----------------------|
E|-------------------------------------------------------------------------|


e|--------5---7---7/10-9---------9/10-9----10/12---------------------------|
B|-----------------------10---10--------10-------14-xx-12-xx-10-9-9--------|
G|----5/6---6---6-----------9--------------------14-xx-11-xx-9--9-9--------|
D|-------------------------------------------------------------------------|
A|-------------------------------------------------------------------------|
E|-------------------------------------------------------------------------|


e|----------------------------------------------14-------14----------------|
B|---------------------------10-10------10/14-14---/14-14--/14-12--9-------|
G|---------------9/11-9-9----------9/11-------------------------------9~---|
D|---11~11/9-7-7----------11-----------------------------------------------|
A|-------------------------------------------------------------------------|
E|-------------------------------------------------------------------------|


Verse

Chorus

Thats all folks.


Key:
| /  slide up
| \  slide down
| h  hammer-on
| p  pull-off
| ~  vibrato
| +  harmonic
| x  Mute note
============================================================================
Related for Old Man Time tab