Song name
# A B C D E F G H I J K L M N O P Q R S T U V W X Y Z

Oar - Patiently tab

Help us improve GuitareTab! Take a short survey!
This is the whole of the intro to patiently.

           C          Em	   F         	G
e------------------------------------------------------|
b-----------5-5h6p5/3----------------------------3-----|
g-0-0h2p0-5-----------5-4--------------------2-5---4---|
d-------------------------5\2-0-0h2p0-3--3-5---------5-|
a------------------------------------------------------|
e------------------------------------------------------|

	C	   Em	           F	        G
e-------------------------------------------6-8---10-8-|
b----------5-5h6p5/3-------85-3h5p3-6-6-8-----8------|
g-0-020-5------------5-4/7-----------------------------|
d------------------------------------------------------|
a------------------------------------------------------|
e------------------------------------------------------|

Enjoy!
Related for Patiently tab