Song name
# A B C D E F G H I J K L M N O P Q R S T U V W X Y Z

Oar - She Gone tab

--9---9---4---4---2---2---9---9---4---4---2---2---0---0---|
--10--10--5---5---4---4---10--10--5---5---4---4---0---0---|
--9---9---4---4---2---2---9---9---4---4---2---2---1---1---|
----------------------------------------------------------|
----------------------------------------------------------|
----------------------------------------------------------|
guitar 1, play throughout song, rhythym changes during chorus

(play over the top of 1st guitar)

--0---0---0---0---0--------------------------------------|
--5---7---9---10--12-------------------------------------|
---------------------------------------------------------|
---------------------------------------------------------|
---------------------------------------------------------|
---------------------------------------------------------|

have fun, o.a.r. is awesome

-Jay
Tap to rate this tab
# A B C D E F G H I J K L M N O P Q R S T U V W X Y Z