Song name
# A B C D E F G H I J K L M N O P Q R S T U V W X Y Z

Oar - Wonderful Day tab

O.A.R.
Wonderful Day

e----------------|
b----------------|
g-10-10 / 12-12--| repeat 3 times
d-10-10 / 12-12--|
a--8--8 / 10-10--|
e----------------|

e-----------------8--8---|
b-----------------8--8---|
g-10-10 / 12-12---9--9---|
d-10-10 / 12-12--10-10---|
a--8--8 / 10-10--10-10---|
e-----------------8--8---|


Questions/Comments:
joshpwc@yahoo.com
or
oarsa.org
Tap to rate this tab
 
# A B C D E F G H I J K L M N O P Q R S T U V W X Y Z