Song name
# A B C D E F G H I J K L M N O P Q R S T U V W X Y Z

Oar - Nasim June tab

Help us improve GuitareTab! Take a short survey!
oar-nasim june tab
Normal tuning etc.

e--0---4----------5---------------------------------------------|
b--0---4---4-h-5--5---------------------------------------------|
g--1---5---4------6---------------------------------------------|
d--2---4---4-h-6--5---------------------------------------------|
a--2---6---4------7---------------------------------------------|
E------4----------5---------------------------------------------|
Verse

e--0-0-0------4----------5--------------------------------------|
b--0-0-0------4---4-h-5--5--------------------------------------|
g--1-1-1--3-4-5---4------6--------------------------------------|
d--2-2-2--2-3-4---4-h-6--5--------------------------------------|
a--2-2-2--4-5-6---4------7--------------------------------------|
E---------2-3-4----------5--------------------------------------|
"...Now baby we can be alone"

e-4---5---0---5---4---5-----------------------------------------|
b-4---5---0---5---4---5-----------------------------------------|
g-5---6---1---6---5---6-----------------------------------------|
d-4---7---2---5---4---7-----------------------------------------|
a-6---7---2---7---6---7-----------------------------------------|
E-4---5-------5---4---5-----------------------------------------|

"...Some Day"

-By Scott Farbman
-farbman2@uiuc.edu for any questoins
Related for Nasim June tab