Song name
# A B C D E F G H I J K L M N O P Q R S T U V W X Y Z

Oar - 59th Street Bridge Song Feeling Groovy tab

59th street bridge song (feeling groovy) - O.A.R

Tabbed by:
Email:rdlsp7756@hotmail.com


Marc switches between strumming and plucking these chords just listen for the change
e|------------------------------------------------------------------------------|
B|-----1--------1----------1----------1-----------------------------------------|
G|-------0---------0----------0------------0------------------------------------|
D|--3--------2------------------------------------------------------------------|
A|---------------------2-----------3--------------------------------------------|
E|------------------------------------------------------------------------------|

e|---------------------------------------------------------------------------|
B|-----1--------1----------1----------1--------------------------------------|
G|-------0---------0----------0------------0---------------------------------|
D|--3--------2----------0----------------------------------------------------|
A|--------------------------------3------------------------------------------|
E|---------------------------------------------------------------------------|
   0:28 into it they're gonna start this
e|----12h13p12---------------------------------------------------------------|
B|-------------13------------------------------------------------------------|
G|----12------------12---10---9---10--9---7---9---7---5---5------------------|
D|---------------------------------------------------------------------------|
A|---------------------------------------------------------------------------|
E|---------------------------------------------------------------------------|


e|----12h13p12-----------------------------------------------------------------------|
B|-------------13--------------------------------------------------------------------|
G|----12------------12---10---9---10--9---7---9---7---5--5h7p5-----------------------|
D|-----------------------------------------------------------------------------------|
A|-----------------------------------------------------------------------------------|
E|-----------------------------------------------------------------------------------|


| /  slide up
| \  slide down
| h  hammer-on
| p  pull-off
| ~  vibrato
| +  harmonic
| x  Mute note
Tap to rate this tab
 
# A B C D E F G H I J K L M N O P Q R S T U V W X Y Z