Song name
# A B C D E F G H I J K L M N O P Q R S T U V W X Y Z

Oasis - Stop The Clocks tab

Here's the outro solo for the demo of Stop The Clocks. Sounds pretty accurate to me.

Key:
/ = Slide up
\ = Slide down
h = Hammer on
p = Pull off

4:41
E---------------------------------------|
B---------------------------------------|
G--------------------7--5--4-4h5p4------|
D--7--7--9/10\9-7\5---------------7p5---|
A------------------------------------7--|
E---------------------------------------|

4:45 / 4:49
E-------------------------------------------| (x2)
B-------------------------------------------|
G------------------------7--5--4-4h5p4------|
D--5/7--7--7-9/10\9-7\5---------------7p5---|
A----------------------------------------7--|
E-------------------------------------------|

4:53
E---------------------------------------------|
B---------------------------------------------|
G------------------------7--5--4-4h5p4--------|
D--5/7--7--7-9/10\9-7\5---------------7p5-7---|
A----------------------------------------7----|
E---------------------------------------------|

Good luck!
Tap to rate this tab
# A B C D E F G H I J K L M N O P Q R S T U V W X Y Z