Song name
# A B C D E F G H I J K L M N O P Q R S T U V W X Y Z

Oasis - The Shock Of The Lightning tab

Title: The Shock Of The Lightning
Artist: Oasis
Album: Dig Out Your Soul

Tempo: 137 bpm

Note: Capo 2nd fret

Chords:
   Gtr. 1      Gtr. 2
A (x02220)    (5776xx)
Am (x02210)    (5775xx)   
F (133211)
G (355433)
F#m (244222)
D (xx0232)    (x577xx)

Intro:
A       |Am    X4

A       |Am
A       |Am
A       |Am
F       |G

Verse 1:
A                 Am
I'm all over my heart's desire,
A                   Am
I feel cold but I'm back in the fire,
A                       Am
Out of control but I'm tied up tight,
     F              G
Come in, come out tonight..

Comin' up in the early morning,
I feel love in the shock of the lightning,
I fall into the blinding light,
Come in, come out, come in, come out tonight..

  A
  [Gtr. 2]
E|----------------|----------------|
B|----------------|----------------|
G|----------------|----------------|
D|7-7-5-7-7-7-5-7-|7-7-5-7-7-7-5-7-|
A|7-7-5-7-7-7-5-7-|7-7-5-7-7-7-5-7-|
E|5-5-5-5-5-5-5-5-|5-5-5-5-5-5-5-5-|    X2

Chorus:
F#m        F
Love is a time machine,
F#m         D
Up on the silver screen,
A         D
It's all in my mind,
F          D
Love is a litany,
F          D
A magical mystery,
A        D           A         D
And all in good time, and all in good time,
A        D        F  G  A
And all in good time..

Verse 2:
I got my feet on the street but I can't stop flyin',
My head is in the clouds but at least I'm tryin',
I'm out of control but I'm tied up tight,
Come in, come out tonight..

There's a hole in the ground into which I'm fallin',
So God's speed to the sound of the poundin',
I'm all into the blinding light,
Come in, come out, come in, come out tonight..

Chorus:
Love is a time machine,
Up on the silver screen,
It's all in my mind,
Love is a litany,
A magical mystery,
And all in good time, and all in good time,
And all in good time..

Drum Solo Break:
  A                Am
E|----------------|----------------|
B|----------------|----------------|
G|----------------|----------------|
D|7-7-5-7-7-7-5-7-|7-7-5-7-7-7-5-7-|
A|7-7-5-7-7-7-5-7-|7-7-5-7-7-7-5-7-|
E|5-5-5-5-5-5-5-5-|5-5-5-5-5-5-5-5-|  X12

Guitar Solo:
  F#m              D
E|----------------|----------------|
B|----------------|----------------|
G|--------2-4-2-4b|--4~--2---------|
D|----------------|----------------|
A|----------------|----------------|
E|----------------|----------------|  X2

Chorus 2:
A         D
It's all in my mind,
F          D
Love is a time machine,
F          D
Up on the silver screen,
A        D
And all in good time, and all in good time,
And all in good time..

Outro:
A       |D    X8
A



Tap to rate this tab
# A B C D E F G H I J K L M N O P Q R S T U V W X Y Z