Guitaretab - guitar tabs
Song name
# A B C D E F G H I J K L M N O P Q R S T U V W X Y Z

Oasis - Soldier On tab

Title: Soldier On
Artist: Oasis
Album: Dig Out Your Soul

Tempo: 76 bpm

Note: Capo 2nd fret

Chords:
E5 (022xxx)
Em (022000)
B (x2444x)
Asus2 (x02200)
Bsus4/F# (2x2200)

Intro:
[Bass Riff]
  E5
G|----------------------------|----------------------------|
D|----------------------------|----------------------------|
A|9--9--9---7-9-7-9---9-7---7-|9--9--9---7-9-7-9---9-7---7-|
E|------------------------9---|------------------------9---|    X4

Verse 1:
Em
Hold the line
B
Friend of mine
Asus2
Sing a song
Em  
Soldier on

Shine a light
For me tonight
Don't be long
Soldier on

Bsus4/F# Em
La la la x 4

Break: 
[Intro X2]

Verse 2:
Who's to say
That you were right
And I was wrong
Soldier on
[ Tab from: http://www.guitaretab.com/o/oasis/115568.html ]
Come the day
Come the night
I'll be gone
Soldier on

La la la x 4

Break: 
[Intro X2]

Outro:
Em
Soldier on x 12

[Harmonica Part]
E|------------12----------|---------12-------------|
B|------------------------|------------14----------|
G|11----------------------|------------------------|
D|------------------------|------------------------|
A|------------------------|------------------------|
E|------------------------|------------------------|

E|------------------------|------------------------||
B|14----------------12----|------------------------||
G|------------------------|11----------------------||
D|------------------------|------------------------||
A|------------------------|------------------------||
E|------------------------|------------------------||


 

Related for Soldier On tab
×
Best way to learn
"Soldier On"