Guitaretab - guitar tabs
Song name
# A B C D E F G H I J K L M N O P Q R S T U V W X Y Z

Oasis - The Nature Of Reality tab

Title: The Nature Of Reality
Artist: Oasis
Album: Dig Out Your Soul

Tempo: 106 bpm

Note: Tune 6th string to D

Chords:
Dsus2 (000230)
G5 (555xxx)
Bb5 (888xxx)
A5 (777xxx)
C5 (101010xxx)
F5 (333xxx)
E5 (222xxx)
Eb5 (111xxx)

Intro:
E|0-0-0-0-0-0-0-0-0-0-0-0-|------------------------|
B|3-3-3-3-3-3-3-3-3-3-3-0-|2-2-2-2-2-2-1-----------|
G|------------------------|2-2-2-2-2-2-1-----0-----|
D|------------------------|0-0-0-0-0-0-0-----0--3--|
A|------------------------|---------------------3--|
D|------------------------|------------------------|

E|------------------------|------------------------|
B|------------------3~----|-----------------/3---3-|
G|0-----------------------|-----------------/2---2-|
D|0-----3--2--0-----------|------------------------|
A|------3--2--0-----------|----0-3---2-0-----------|
D|------------0-----------|----0-3---2-0-----------|

E|------------------------|------------------------|
B|3-----------------3~----|-----------------/3---3-|
G|2-----------------------|-----------------/2---2-|
D|------------------------|------------------------|
A|----0-3---2-0-----------|----0-3---2-0-----------|
D|----0-3---2-0-----------|----0-3---2-0-----------|

E|------------------------|
B|3-----------------3~--3-|
G|2-----------------2---2-|
D|------------------------|
A|----0-3---2-0-----------|
D|----0-3---2-0-----------|
[ Tab from: http://www.guitaretab.com/o/oasis/115706.html ]
Verse 1:
Dsus2
The nature of reality
E|------|------------------------|------------------------|
B|---3~-|------------------3~----|-----------------/3---3-|
G|------|------------------------|-----------------/2---2-|
D|------|------------------------|------------------------|
A|------|----0-3---2-0-----------|----0-3---2-0-----------|
D|------|----0-3---2-0-----------|----0-3---2-0-----------|
   G5               Bb5
Is pure subjective fantasy
E|------------------------|------------------------|
B|------------------3~----|-----------------/3---3-|
G|------------------------|-----------------/2---2-|
D|------------------------|------------------------|
A|----0-3---2-0-----------|----0-3---2-0-----------|
D|----0-3---2-0-----------|----0-3---2-0-----------|
A5                  C5
Space and time and here and now
     G5           F5  E5  Eb5
Are only in your mind

Intro:

Verse 2:
Machine of god and devil too
With no weapons just the truth
Belief does not existence make
It's only in your mind

Intro:

Guitar Solo:
  Dsus2
E|------------------------|------------------------|
B|------------6-8-6-------|------------6-8-6-------|
G|--------5-7-------7-5-7-|--------5-7-------7---7-|
D|----5-7-----------------|----5-7-----------------|
A|5-8---------------------|5-8---------------------|
D|------------------------|------------------------|

E|------------------------|------------------------|
B|------------6-8-6-------|6-8-6-------6-8-6-------|
G|--------5-7-------7-5-7-|------7-5-7-------7-5-7-|
D|----5-7-----------------|------------------------|
A|5-8---------------------|------------------------|
D|------------------------|------------------------|
  G5                       Bb5
E|------------------------|------------------------|
B|8----8---8--6----5---5--|6----6---6--5-----------|
G|------------------------|-----------------7------|
D|------------------------|------------------------|
A|------------------------|------------------------|
D|------------------------|------------------------|
  Dsus2
E|------------------------|------------------------|
B|----------------6-8-6-8-|------------------6~-8--|
G|----------5-5-7---------|--------------5-7-------|
D|----5-5-7---------------|----------7-7-----------|
A|5-8---------------------|------------------------|
D|------------------------|------------------------|
    
     A5         C5
The nature of reality
    G5           F5    E5    Eb5           
Is only in your mind

Related for The Nature Of Reality tab