Song name
# A B C D E F G H I J K L M N O P Q R S T U V W X Y Z

Oasis - I Believe In All tab

Title: I Believe In All
Artist: Oasis
Album: Dig Out Your Soul (Bonus Disc)

Tempo: 194 bpm

Note: Capo 2nd fret

Chords:
Em (022000) 
A9sus4 (000000)         
Esus4 (022200)
Am (x02210)
C (x32010)
G (3x0033)
A7 (x02223)
Dsus2 (xx0230)

Intro:
             (A9sus4)
Em      |    (A9sus4) X4

Verse 1:
Em                    
I can take em all
      Esus4                     
So I leave you with this thought
           Am        
There's a fire in the sky
        C
I don't need no alibi
    Em                
See I believe in all

And do you hear me when I say
That I gotta walk this way
There's a fire in the sky
I don't need no alibi
See I believe in all

Chorus:
    G   A7      Em
And I-I-I will catch you when you fall
        Am       Dsus2 Em
That's what I'm gonna do
And I-I-I will catch you if you call     
That's what I'm gonna do

Break:
Em      |    (A9sus4) X2

Verse 2:
I can see for miles
And I can see you and your crimes
There's a fire in the sky
I don't need no alibi
See I believe in all

Do you hear me when I say
That I gotta walk this way
There's a fire in the sky
I don't need no alibi
See I believe in all

Chorus:
And I-I-I will catch you when you fall
That's what I'm gonna do
And I-I-I will catch you if you call
That's what I'm gonna do

Solo:
  G                        A7
  [Bass]
G|------------------------|------------------------|
D|-------------------14---|-------------------16---|
A|12-------12-14s16-------|14-------14-16s18-------|
E|------------------------|------------------------|
  Em
  [Gtr.]
E|------------------------|------------------------|
B|------0-----0-----------|------0-----0-----------|
G|------2b----2-----0-----|------2b----2-----0-----|
D|------------------------|------------------------|
A|------------------------|------------------------|
E|------------------------|------------------------|
  Am                       Dsus2
  [Bass]
G|------------------------|------------------------|
D|------------------------|------------------------|
A|14----------16----17----|19\---------14----------|
E|---------14-------------|------------------------|
  Em
  [Gtr.]
E|------------------------|------------------------|
B|------0-----0-----------|------0-----0-----------|
G|------2b----2-----0-----|------2b----2-----0-----|
D|------------------------|------------------------|
A|------------------------|------------------------|
E|------------------------|------------------------|
  [Bass]
  G                        A7
G|------------------------|------------------------|
D|-------------------14---|-------------------16---|
A|12-------12-14s16-------|14-------14-16s18-------|
E|------------------------|------------------------|
  [Gtr.]
  Em
E|------------------------|------------------------|
B|------0-----0-----------|------0-----0-----------|
G|------2b----2-----0-----|------2b----2-----0-----|
D|------------------------|------------------------|
A|------------------------|------------------------|
E|------------------------|------------------------|
  [Bass]
  Am                       Dsus2
G|------------------------|------------------------|
D|------------------------|------------------------|
A|14----------16----17----|19\---------5-----------|
E|---------14-------------|------------------------|

Outro:
Em      |     (A9sus4)  X3
Em      |Em


Tap to rate this tab
# A B C D E F G H I J K L M N O P Q R S T U V W X Y Z