Song name
# A B C D E F G H I J K L M N O P Q R S T U V W X Y Z

Oasis - The Masterplan Live tab

Help us improve GuitareTab! Take a short survey!
The Masterplan - Live

Noel Gallagher Plays the rhythm acoustic guitar
Gem plays the lead electric

both standard turning


Noel Gallagher's Acoustic intro:
E||--0----0--0-0-0-0-0--0--0-0-|--0-0-0--0--0-0-0-0-0--0--0-0-|
B||--5----5--5-5-5-5-5--5--5-5-|--5-5-5--5--5-5-5-5-5--5--5-5-|
G||--5----5--5-5-5-5-5--5--5-5-|--5-5-5--5--5-5-5-5-5--5--5-5-|
D||--7----7--7-7-7-7-7--7--7-7-|--6-6-6--6--6-6-6-6-6--6--6-6-|
A||--0----0--0-0-0-0-0--0--0-0-|--0-0-0--0--0-0-0-0-0--0--0-0-|
E||----------------------------|------------------------------|

--0--0--0--0-0-0-0-0--0--0-0-|--0--0--0--0-0-0-0-0--0--0-0-|
--5--5--5--5-5-5-5-5--5--5-5-|--5--5--5--5-5-5-5-5--5--5-5-|
--5--5--5--5-5-5-5-5--5--5-5-|--5--5--5--5-5-5-5-5--5--5-5-|
--5--5--5--5-5-5-5-5--5--5-5-|--4--4--4--4-4-4-4-4--4--4-4-|
--0--0--0--0-0-0-0-0--0--0-0-|--0--0--0--0-0-0-0-0--0--0-0-|
-----------------------------|-----------------------------|

--0----0--0-0-0-0-0--0--0-0-|--0--0--0--0-0-0-0-0--0--0-0-|
--5----5--5-5-5-5-5--5--5-5-|--5--5--5--5-5-5-5-5--5--5-5-|
--5----5--5-5-5-5-5--5--5-5-|--5--5--5--5-5-5-5-5--5--5-5-|
--3----3--3-3-3-3-3--3--3-3-|--0--0--0--0-0-0-0-0--0--0-0-|
--0----0--0-0-0-0-0--0--0-0-|--0--0--0--0-0-0-0-0--0--0-0-|
----------------------------|-----------------------------|

--0----0--0-0-0-0-0--0--0-0-|--0----0--0-0-0-0-0--0--0-0-|
--1----1--1-1-1-1-1--1--1-1-|--0----0--0-0-0-0-0--0--0-0-|
--2----2--2-2-2-2-2--2--2-2-|--1----1--1-1-1-1-1--1--1-1-|
--2----2--2-2-2-2-2--2--2-2-|--0----0--0-0-0-0-0--0--0-0-|
--0----0--0-0-0-0-0--0--0-0-|--2----2--2-2-2-2-2--2--2-2-|
----------------------------|----------------------------|

--0----0--0-0-0-0-0--0--0-0-|--0-0-0--0--0-0-0-0-0--0--0-0-|
--5----5--5-5-5-5-5--5--5-5-|--5-5-5--5--5-5-5-5-5--5--5-5-|
--5----5--5-5-5-5-5--5--5-5-|--5-5-5--5--5-5-5-5-5--5--5-5-|
--7----7--7-7-7-7-7--7--7-7-|--6-6-6--6--6-6-6-6-6--6--6-6-|
--0----0--0-0-0-0-0--0--0-0-|--0-0-0--0--0-0-0-0-0--0--0-0-|
----------------------------|------------------------------|

--0--0--0--0-0-0-0-0--0--0-0-|--0--0--0--0-0-0-0-0--0--0-0-|
--5--5--5--5-5-5-5-5--5--5-5-|--5--5--5--5-5-5-5-5--5--5-5-|
--5--5--5--5-5-5-5-5--5--5-5-|--5--5--5--5-5-5-5-5--5--5-5-|
--5--5--5--5-5-5-5-5--5--5-5-|--4--4--4--4-4-4-4-4--4--4-4-|
--0--0--0--0-0-0-0-0--0--0-0-|--0--0--0--0-0-0-0-0--0--0-0-|
-----------------------------|-----------------------------|

--0----0--0-0-0-0-0--0--0-0-|--0--0--0--0-0-0-0-0--0--0-0-|
--5----5--5-5-5-5-5--5--5-5-|--5--5--5--5-5-5-5-5--5--5-5-|
--5----5--5-5-5-5-5--5--5-5-|--5--5--5--5-5-5-5-5--5--5-5-|
--3----3--3-3-3-3-3--3--3-3-|--0--0--0--0-0-0-0-0--0--0-0-|
--0----0--0-0-0-0-0--0--0-0-|--0--0--0--0-0-0-0-0--0--0-0-|
----------------------------|-----------------------------|

--0----0--0-0-0-0-0--0--0-0-|--0----0--0-0-0-0-0--0--0-0-|
--1----1--1-1-1-1-1--1--1-1-|--0----0--0-0-0-0-0--0--0-0-|
--2----2--2-2-2-2-2--2--2-2-|--1----1--1-1-1-1-1--1--1-1-|
--2----2--2-2-2-2-2--2--2-2-|--0----0--0-0-0-0-0--0--0-0-|
--0----0--0-0-0-0-0--0--0-0-|--2----2--2-2-2-2-2--2--2-2-|
----------------------------|----------------------------|

while noel plays this gem is making a few natural harmonics on the 12 fret B and 
E strings.
and he bends the B by holding down the B string after the neck. its easy, just 
listen and you'll get it.
after that he plays some thing like this:

------------------|
-----1--0--1------|
---2---2----------| X2
------------------|
------------------|
------------------|

------0--------------0-----------------------------------|
-0h1----0------0h1---------1----0--1---------------------|
------------2----------------2---------------------------|
---------------------------------------------------------|
---------------------------------------------------------|
---------------------------------------------------------|

------------------------------------------------------------0--|
------------------------------------------------------3-----0--|
------------------------------------------------------------1--|
-0-------0h2p0-----0------------------------------2s4---4---0--|
----------------3-----3---0-----0--------------0------------2--|
-----------------------------3------------------------------0--|


Am                                  G
Take the time to make some sense of what you want to say
    F                G            Am    E7
And cast your words away upon the waves
Am                                 G
Sail them home with Acquiesce on a ship of hope today
     F               G
And as they fall upon the shore
D                 F
Tell them not to fear no more
G                            E      E7
Say it loud and sing it proud today


Chorus:

          C
And then dance if they want to dance
C/B
Please brother take a chance
Am
You know they're gonna go
G
Which way they wanna go
F   G   C           G
All we know is that we don't
C
Know how its gonna be
G/B
Please brother let it be
Am                     G                  F
Life on the other hand won't let you understand
G                     Am
We're all part of the masterplan


guitar solo 1:

in the start of the solo gem bends the D note of the 7th fret G string, after that he
picks is again back down, and he dose that a few time, he also uses loads of vibrato, 
kinda hard to get what he dose there...
this solo is a mess...

Am                      G
----------------------------------------------------|
----------------------------------------------------|
-7b9-----------9r7---9r7---9r7b9----5~~~--7b9--5~~~-|
----------------------------------------------------|
----------------------------------------------------|
----------------------------------------------------|

F         G               Am         E7
-----------------------------------------------|
-------------------------------------0---------|
-7-5-----7b(slow bend up and down)---1---------|
-----7-5-----------------------------0---------|
-------------------------------------2---------|
-------------------------------------0---------|

 Am            G               F            G            D
----------------------------------------------------------|
-8h10---10~-----------------------------------------------|
---------------7b9r7--5------------7p5------7b9r7--5--7b9-|
-------------------------7-----7--------7-----------------|
----------------------------------------------------------|
----------------------------------------------------------|

F
-------------------------------|
-------------------------------|
--5--------------5-------------|
-----7--5--7~--------7--5--7~--|
-------------------------------|
-------------------------------|


G                            E      E7
Say it load and sing it proud today

Verse 2:

Am
I'm not saying right is wrong
G
It's up to us to make
    F           G                    Am    E7
The best of all things that come our way
    Am
Coz everythig thats been has past
    G
The answer's in the looking glass
        F               G
There's four and twenty million doors
D                   F
On  life's endless corridors
G                              E7
Say it loud and sing it proud today


Chorus:

          C
And then dance if they want to dance
C/B
Please brother take a chance
Am7
You know they're gonna go
G
Which way they wanna go
F   G   C           G
All we know is that we don't
C
Know how its gonna be
C/B
Please brother let it be
Am                     G                  F
Life on the other hand won't let you understand
G                     C G  C
We're all part of the masterplan

Outro : C | C/B | Am | G | X 4

and with this chords gem play this:

----------------------------------------------------------------|
--8h10---8-----------------------------------------8------------|
--------------9s7----5--5~--------5h7---5---7--7b9---7r9--5--7--| X3
-----------------------------5h7--------------------------------|
----------------------------------------------------------------|
----------------------------------------------------------------|

in the 4th time its like this:


----------------------------------------------------------|
--8h10---8-----------------------------------------8------|
--------------9s7----5--5~--------5h7---5---7--7b9---7b9--|
-----------------------------5h7--------------------------|
----------------------------------------------------------|
----------------------------------------------------------|

C | C/B | Am | G | X 2
F | G | E | E7|

then the E comes in gem plays this

G ---7-7-7-7-7-7---7-6-5--5-4-2~~

outro - same as the intro.
end the song in Am . listen to it you'll get it right.

enjoy, give me some comments
Related for The Masterplan Live tab