Song name
# A B C D E F G H I J K L M N O P Q R S T U V W X Y Z

Oasis - Dyer Wanna Be A Spaceman tab

----------------------------------------------------------------------------
			     D'Yer Wanna Be A Spaceman - Oasis
----------------------------------------------------------------------------
Tabbed by:Al Comacch
Email:co1_macc@hotmail.com

Tuning:Standard Tuning

                 This isint really the whole song, but Noel basically during the whole 
fiddles around on the 12th and 14th fret on the D and G string, these are some of
bits i heard in the song

 e|------------------------------------------------------|
 B|------------------------------------------------------|
 G|-----------12-14p-12p---------------------------------|
 D|---12h-14---------------------------------------------|
 A|------------------------------------------------------|
 E|------------------------------------------------------|

 e|------------------------------------------------------|
 B|------------------------------------------------------|
 G|----------12----------12------------------------------|
 D|---12h-14-----12h-14----------------------------------|
 A|------------------------------------------------------|
 E|------------------------------------------------------|

 e|------------------------------------------------------|
 B|------------------------------------------------------|
 G|---14p-12----14p-12-----------------------------------|
 D|------------------------------------------------------|
 A|------------------------------------------------------|
 E|------------------------------------------------------|

  well, i dont really no if tht is much help, but im kinda new to tabbing so tht might
shite, but, if u listen to the song ull hear tht noel is just makin up some stuff on
frets and strings, peace out, OASIS!!!!!, and also, the song is just repeating it self, 
ull hear those bits over and over again in the song.
Tap to rate this tab
# A B C D E F G H I J K L M N O P Q R S T U V W X Y Z