Song name
# A B C D E F G H I J K L M N O P Q R S T U V W X Y Z

Oasis - Rockin Chair tab

Help us improve GuitareTab! Take a short survey!
Hi!This is my first tab so i hope it's not bad...i'm sure that it's not 100% right but i 
it's close...let me know what you think at tsr_fillinich@libero.it

intro


E |-------------------------------------------------------0-------------------|
B |----------------------------------------------------1-----1--3-----------1-|
G |-------------------------------------------------2--------------2-----2----|
D |----------0-----0--------------0-----0-------------------------------------|
A |-0-----3-----------3--0-----3-----------3--0-------------------------------|
E |---------------------------------------------------------------------------|

E |-------0----------|
B |-3--------1-------|
G |-------------2----|
D |------------------|
A |------------------|
E |------------------|


solo


E |---------------------------------------------------------------------------|
B |-------------------8-----8-------------------------------------------------|
G |-9-----7-----7-----7-h9--7-h9-p7-----7-----------7--9--------7--9-----7----|
D |----10----10----------------------10----10----10----------10-------10------|
A |---------------------------------------------------------------------------|
E |---------------------------------------------------------------------------|

E |----------------------------------------------------------------------------|
B |-------------------------------------------------------------------10-10-10-|
G |----------------7-----7--------7--7--7--9--7-----7-----9--------------------|
D |----------7--10----10-------------------------10----10----10----------------|
A |----7--10-------------------------------------------------------------------|
E |-10-------------------------------------------------------------------------|

E |---------------------------------------------------------------------------|
B |-8--------------10-10-10-8--------------10-10-10-8-------------------------|
G |----9--7--------------------9--7--------------------9--7--------7--7-b9--7-|
D |----------10----------------------10----------------------10---------------|
A |---------------------------------------------------------------------------|
E |---------------------------------------------------------------------------|

E |----------------------------------------------------------------------------|
B |----------------------------------------------------------------------------|
G |----7--------7--------------7-----7-----------------------------------------|
D |-10----10-------10-7--10-------10----------7-h10b11----7-h10b11----7-h10b11-|
A |----------------------------------------------------------------------------|
E |----------------------------------------------------------------------------|

E |---------------|
B |---------------|
G |---------------|
D |----7-h10b11---|
A |---------------|
E |---------------|

End
Related for Rockin Chair tab