Song name
# A B C D E F G H I J K L M N O P Q R S T U V W X Y Z

Oasis - Roll It Over tab

-------------------------------------------------------------------------------
			     Roll It Over - Oasis
-------------------------------------------------------------------------------

Tabbed by: Gallagher2006
Email: Rikkimackenzie2006@fsmail.net

I noticed there were no proper tabs of this song around,
so I thought I’d tab it out. 

It’s correct as far as I know, although there may be a 
few riffs or licks I have missed, so put them in the 
comments section n I’ll update the tab.

The song itself isn’t very hard, but the timing is a bit
annoying for whoever plays rhythm guitar in your band.
Just listen to the song to get it down.

Tuning: Standard

Chords

C#m7		(x46600)
Amaj9		(x06600)
B5		(x244xx)
A6sus2		(x044xx)
Eadd9/G#	(4x44xx)
F#7sus4		(2x44xx)
E		(022100)
F#add11/E	(044300)
Asus2/E		(077600)
G		(320033)
A		(x02220)
C		(x32010)
D		(xx0232)



Intro

    Let Ring Throughout

e|--------0------0---0------------------------------------------------------|
B|--0-------0----0---0------------------------------------------------------|
G|----6-------6--6---6------------------------------------------------------|
D|------6--------6---6------------------------------------------------------|
A|---------------4---0------------------------------------------------------|
E|--------------------------------------------------------------------------|

Verse chords (I could give a…) – C#m7 – Amaj9 throughout

Lead guitar picks at the chords like this at the end of Liam’s vocals

e|------------0---------------------0----------------------------------------|
B|-----0---0----0-------------0---0---0--------------------------------------|
G|---6---6--------6---6-----6---6------6---6---------------------------------|
D|------------------6--------------------6-----------------------------------|
A|-4----------------------0--------------------------------------------------|
E|---------------------------------------------------------------------------|

Bridge( Does it make it…) – B5 – A6sus2 – Eadd9/G# - F#7sus4 

Lead Guitar plays this. Each “8” is when a 
new chord on the 2nd guitar starts.

e|---------------------------------------------------------------------------|
B|---------------------------------------------------------------------------|
G|-8-9-9-9-8-9-9-9-8-9-9-9-8-9-9-9-------------------------------------------|
D|---------------------------------------------------------------------------|
A|---------------------------------------------------------------------------|
E|---------------------------------------------------------------------------|

Chorus (Roll It Over My…) E – F#add11/E – Asus2/E

Lead guitar just picks at the open notes on the 
chorus chords

End of chorus is this little lick

e|-12----------------------------------|
B|-----12-14—14b-12—9~~~~9~~~~~--------|
G|-------------------------------------|
D|-------------------------------------|
A|-------------------------------------|
E|-------------------------------------|

Repeat the song with the different lyrics until
 you come to the instrumental bridge

Guitar 2 plays this where there is an E chord 
supposed to be played

e|-----0-0-0-----------------|
B|-----0-0-0-----------------|
G|---------------------------|
D|-----2-2-2------0~~~-------|
A|------------0h2------------|
E|-0~~~----------------------|

On the second verse after Liam’s vocals, there is a 
guitar playing around with harmonics on the 12 fret
   
e|-(12)---(12)----(12)---(12)---(12)---(12)---(12)---|
B|----(12)----(12)----(12)---(12)---(12)---(12)------|
G|---------------------------------------------------|
D|---------------------------------------------------|
A|---------------------------------------------------|
E|---------------------------------------------------|

Chords played over the long solo are E – G – F#add11/E repeated 3 times
Then G – A – C – D – E for about 5 bars

The solo is too long to put into the correct timing,
so just listen to the song to get the timing.

e|---------------------------------------------------------------------------|
B|-15b-15b17r15-12-15b17~~---------------------------------------------------|
G|--------------------------12-14b16r14-12-14b16~~-14b16-14b16r14-12---------|
D|-------------------------------------------------------------------14~~~---|
A|---------------------------------------------------------------------------|
E|---------------------------------------------------------------------------|

e|---------------------------------------------------------------------------|
B|-------------------15b17r15-12-15b17~~-------------------------------------|
G|---------------------------------------12-14b16r14-12-14b16~~-14b-14b16r14-|
D|---------------------------------------------------------------------------|
A|-12b14-10b11---------------------------------------------------------------|
E|-------------12~~~---------------------------------------------------------|

e|-----------------------------------------------15b-15b17r15-12-------------|
B|-----------------------15~~15b17r15-12-15b17~~-----------------15b17~~~----|
G|-12------------------------------------------------------------------------|
D|----14---------------------------------------------------------------------|
A|-------12b14-10b11---------------------------------------------------------|
E|-------------------12~~~---------------------------------------------------|

e|-17b19—17b19r17-15---------------------------15b17~~-----------------------------|
B|-------------------17~~---15b17-15b17r15p12-----------15b17-15b17r15-12----------|
G|------------------------------------------------------------------------14b16~~--|
D|---------------------------------------------------------------------------------|
A|---------------------------------------------------------------------------------|
E|---------------------------------------------------------------------------------|

e|--------------------------------------------------------------------------------|
B|--------------------------------------------------------------------------------|
G|-14-12-----------------12b14~~~------------------------------------------12b16--|
D|--------14--14--12--14----------14-12-------------------------------------------|
A|---------------------------------------14-12-10----------10b11-10-12-14---------|
E|------------------------------------------------12-10h12~-----------------------|

e|----------------------------------------|
B|----------------------------------------|
G|----------------------------------------|
D|----------------------------------------|
A|-14-12-12-11----------------------------|
E|-------------12-12-10-7--5--3—0~~~~-----|

Chorus twice then the outro solo.

Guitar 2 plays G – A – C – D over it

e|---------------------------------------------------------------------------|
B|---------8------------------------------------------8b10-------------------|
G|-----------9p7----------------------------------7-9-------9-7--------------|
D|---5-7/9-------6b7r6-6--------6b7r6-------5-7/9---------------9--7--6------|
A|-7----------------------7-7-7-------7-7-7----------------------------------|
E|---------------------------------------------------------------------------|

e|---------------------------------------------------------------------------|
B|---------------------------------------------------------------------------|
G|---------------------------------------------------------------------------|
D|-------6b76----------------------------------------------------------------|
A|-7-7-7------7-7-7----2~~~~~~~----------------------------------------------|
E|---------------------0~~~~~~~----------------------------------------------|

Guitar 2 does this to fade

e|-----0-0-0-----------------|
B|-----0-0-0-----------------|
G|---------------------------|
D|-----2-2-2------0~~~-------|
A|------------0h2------------|
E|-0~~~----------------------|


| /  slide up
| \  slide down
| h  hammer-on
| p  pull-off
| ~  vibrato
| +  harmonic
| x  Mute note
===============================================================================
Tap to rate this tab
# A B C D E F G H I J K L M N O P Q R S T U V W X Y Z