Song name
# A B C D E F G H I J K L M N O P Q R S T U V W X Y Z

Oasis - Some Might Say tab

Some Might Say – Oasis
This is our first tab, we just copied someone else’s but put it in the right order with 
lyrics. This is 100% right.

Tabbed By ShoD and TiH

GO:

  D			   Bsus2	   G2	      D	      A
e-----------------------------------------------------2-0-2---0-0-0-0-0-0-0-0--|
B------------------------------2---2---2-------3------------3-2-3-2-3-2-2-3-2--|
G--------------------------2s4--4---4---4--------4----2-------2-2-2-2-2-2-2-2--|
D-7---9---7--9-7---9--7-9--2s4---4---4---4-4s5-----5--0-------2-2-2-2-2-2-2-2--|
A-5-5-5-5-5--5-5-5-5--5-5--0h2-------------4s5----------------0-0-0-0-0-0-0-0--|
E------------------------------------------------------------------------------|

D					      Bsus2
e------------------------------------------------------------------------|
B------------------------------------------------------------------------|
G---9b11--9--7--9--7---9b11-9b11--9--7--7----------7--9--9b11r9--7--9--7-|
D------------------------------------------7--7h9------------------------|
A------------------------------------------------------------------------|
E------------------------------------------------------------------------|
	         G		   D			   A
e--------------------------------------------------------------|
B--8--7--8--7--8s10--8--7--8--7--8s10--10--10--12--10--12--10--|
G--------------9s11--9--7--9--7--9s11--11--11------------------|
D--------------------------------------------------------------|
A--------------------------------------------------------------|
E--------------------------------------------------------------|

D				     Bsus2
Some might say that they don’t believe in heaven
       G	      D	             A
Go and tell it to the man who lives in hell
D				    Bsus2
Some might say that we should never ponder
       G		  D		      A
On our thoughts today cos they hold sway over time


	   Em	       G	       D
Some might say we will find a brighter day
	   Em	       Cadd9	       G
Some might say we will find a a brighter day!

Yeah! Yeah!

    D		 G       Em          G		 D    G   Em    G
Cos I've been standing at the station, in need of education in the rain
    D 		 G	 Em         G	         D    G   Em    G
You made no preparation, for my reputation was to gain
    D		 G	  Em        G		  D     G Em    G
The sink is full of fishes, she's got dirty dishes on the brain
    D  	         G	  Em          G          D     G   Em      G
If overflowing gently, it's all elementary my friend
F#m          F		   C		    A
e--------------------------------------------------------------10--12--|
B-5s7--5--3--5-5b6r5--3--3------3--5b6r5---3--5--3--5--10--12----------|
G----------------------------4-----------------------------------------|
D----------------------------------------------------------------------|
A----------------------------------------------------------------------|
E----------------------------------------------------------------------|

  D					   Bsus2
e--------------------------------------------------------------------------|
B------------------------------------------8--7--8--7--8--7--8s10-10--8--7-|
G-----7----7---7--9--9b11r9--7--7h9--7-----9--7--9--7--9--7--9s11-11--9--7-|
D-7h9----9---9-------------------------------------------------------------|
A--------------------------------------------------------------------------|
E--------------------------------------------------------------------------|

    		  G                 	  D                  	   A
e--------------------------------------------------------------------------|
B-8--7--8--7--8--8s10--10--8--7--8--7--8--8s10--10--8--7--8--7--8--7--7--8-|
G-9--7--9--7--9--9s11--11--9--7--9--7--9--9s11--11--9--7--9--7--9--7--7--9-|
D--------------------------------------------------------------------------|
A--------------------------------------------------------------------------|
E--------------------------------------------------------------------------|

e--------------------------------|
B-7--7--8--7--10--10--10--8--7---|
G-7--7--9--7--11--11--11--9--7---|
D--------------------------------|
A--------------------------------|
E--------------------------------|

D		Bsus2
Some might say they don't belive in heaven
	             G----------7--9--9b10r9--7--7h9--7--9--7--|
	             D-----7--9--------------------------------|
G	      D	             A
Go and tell it to the man who lives in hell...

                      G------7---7-----7--9b10--b10--b10--b10--b10r9--7h9--7-|
                      D--7h9--------9----------------------------------------|
D	        Bsus2
Some might say you get what you’ve been given...

                  e----------------------------------7-----------------------|
                  B----------------------------------------------------------|
                  G-9--9b10r9--7----------7--9--9b11---b10r9--7--9--7--9--7--|
                  D---------------9--7--9------------------------------------|
G                 D                 A
If you don't get yours I wont get mine as well

             B----------------------------------------------------------------|
             G------7--9b10--b10--b10--b10--b10--b10--b10--b10--b10r9--7h9--7-|
             D-7h9------------------------------------------------------------|
Em                G                D
Some might say we will find a brighter day....

                      e---------------------------7---------------|
                      B-------------------------------------------|
                      G--9b11--9--7-----7--9b10.5----9--7--9--7---|
                      D--------------9----------------------------|
Em                Cadd9             D
Some might say we will find a brighter ....

    D		 G       Em          G		 D    G   Em    G
Cos I've been standing at the station, in need of education in the rain
    D 		 G	 Em         G	         D    G   Em    G
You made no preparation, for my reputation was to gain
    D		 G	  Em        G		  D     G Em    G
The sink is full of fishes, she's got dirty dishes on the brain
    D  	         G	  Em          G          D     G   Em      G
If overflowing gently, it's all elementary my friend

D      G          Em       G         D
E----------------------------------------|
B----------------------------------------|
G----------------------------------------|
D----s4--2--0----------0-----0--2s4--0---|
A----------------0--2-----2--------------|
E----------------------------------------|

D      G          Em       G         D
e---------------------------------------|
B---------------------------------------|
G---------------------------------------|
D----s4--2--0----------0-----0--2s4--0--|
A----------------0--2-----2-------------|
E---------------------------------------|
D      G          Em       G         D
e---------------------------------------|
B---------------------------------------|
G---------------------------------------|
D----s4--2--0----------0-----0--2s4--0--|
A----------------0--2-----2-------------|
E---------------------------------------|

D     G         Em         G          D       G        Em       G
e----------------------------------------------------------------------------|
B----------------------------------------------------------------------------|
G----------------------------7--9b11--7---9b11--9--7--------7-----7--9b11--7-|
D---s4--2--0-----------7--9---------------------------7--9-----9-------------|
A--------------7--7s9--------------------------------------------------------|
E----------------------------------------------------------------------------|
Tap to rate this tab
 
# A B C D E F G H I J K L M N O P Q R S T U V W X Y Z