Song name
# A B C D E F G H I J K L M N O P Q R S T U V W X Y Z

Oasis - Wonderwall tab


#----------------------------------PLEASE NOTE--------------------------------#
#This file is the author's own work and represents their interpretation of the#
#song. You may only use this file for private study, scholarship, or research.#
#-----------------------------------------------------------------------------#
#-- File created with Instab - http://www.pconline.com/~smcarey/instab.html --#
#-----------------------------------------------------------------------------#

Author/Artist: Oasis
Title: Wonderwall
Transcribed by: Saverain
v strum down
^ strum up
m2 mute only the 2 on the D string
p pull off
h hammer on
( ) Played by violin or other
\ slide down
/ slide up

Hint: Make shure you only mute the 2 in the chord (Just take
finger off and place back on each time) for the verse.
The chorus is very close to correct just get use to the
rythym and sing with it.  The Pre chorus is close to the
real thing.  You can stum it if you like.  G D Em7 A7sus4.
Make shure you play along with song to get right.

Standard tuning with capo on 2nd fret
Capo 2nd Fret

----------|--------------------------------------------------------|----------|
----------|-------3-------------3--------3-3--3--3-3--3--3-3-3-3-3-|----------|
----------|-0--0--0--0-0-0-0-0--0--0-0-0-2-2--2--2-0--0--0-0-0-0-0-|----------|
----------|-2--2--2--2-2-2-0-0--0--0-0-0-0-0--0--0-2--2--2-2-0-0-0-|----------|
----------|-2--2--2--2-2-2-2-2--2--2-2-2-0-0--0--0-0--0--0-0-0-0-0-|----------|
----------|--------------------------------------------------------|----------|
  Verse     v  ^  v  v ^ v ^ ^  v  v ^ v ^ ^  v  v ^m2^m2^ v ^ v ^

----------|----3-------2-3-2----------------------------------|---------------|
----------|-------3----------3--------------------------------|---------------|
----------|---------------------2--------------0-------0------|---------------|
----------|--------------------------------0-------0h2--------|---------------|
----------|-3--------------------------0h2--------------------|---------------|
----------|-------------------------0-------------------------|---------------|
  Inter GDEmv  ^  v    v ^ v ^  v  ( ) v   v   v   v   ^

----------|----3-------2-3-2-----------------------3-----3---|----------------|
----------|-------3----------3-------------------------------|----------------|
----------|---------------------2--------------0------0------|----------------|
----------|--------------------------------0-----------------|----------------|
----------|-3--------------------------0h2-------------------|----------------|
----------|-------------------------0------------------------|----------------|
  Inter     Play 1 1/2 times       ( )            ^   v  ^

---|----3------2-------3-------------0--------------0----------------------|--|
---|------3------3-------3--------3-----3--------3-----3-------3-----3-----|--|
---|-0------0-------0------0-------------------0---------0---0-----0---0---|--|
---|-0------0-------2-----------2----------2---------------------2-------2-|--|
---|-x------x-------2------------------------0-------------0---------------|--|
---|-3------2-------0------------------------------------------------------|--|
   Pre Chorus

---------|---------------------------------------------------|--|-------------|
---------|-3---3--3-3--3-3--3--3-3--3-3--3--3-0--0-0--0--0-0-|--|-------------|
---------|-0---0--0-0--0-0--0--0-0--0-0--0--0-0--0-0--0--0-0-|--|-------------|
---------|-2---2--2-2--2-2--2--2-0--0-0--0--0-0--0-0--0--0-0-|3x|-------------|
---------|-3---3--3-3--2-2--2--2-2--2-2--2--2-2--2-2--2--2-2-|--|-------------|
---------|---------------------------------------------------|--|-------------|
  Chorus   v   v  v ^  ^ ^  v  v ^  ^ ^  v  v ^  ^ ^  v  v ^

-----|-----------------------------------------------------------------------|
-----|-3---3--3-3--3-3--3--3-3--3-3--3--3-0----------------3-3-3-3-3-3-3-3---|
-----|-0---0--0-0--0-0--0--0-0--0-0--0--0-0----------------0-0-0-0-0-0-0-0---|
-----|-2---2--2-2--2-2--2--2-0--0-0--0--0-0----------------0-0-0-0-0-0-0-0---|
-----|-3---3--3-3--2-2--2--2-2--2-2--2--2-2----------------0-0-0-0-0-0-0-0---|
-----|-----------------------------------------------------0-0-0-0-0-0-0-0---|
  Chorus End                               m               v ^ v ^ v ^ v ^

-----|-------|------|----------|--------------------------------|-------3-0--|
-----|-------|------|----------|--------------------------------|-1-0-1------|
-----|-------|------|----------|--------------------------------|------------|
-----|-------|------|----------|--------------------------------|------------|
-----|-------|------|----------|--------------------------------|------------|
-----|-------|------|----------|--------------------------------|------------|
       Verse   Inter Pre Chorus  Chorus a bunch of times w/ this  Piano

-----|---------------------------------------------------------|--------------|
-----|---------------------------------------------------------|--------------|
-----|---------------------------------------------------------|--------------|
-----|------------------------------9vvvvvvvvvvvvvv9\----------|--------------|
-----|---------------------------------------------------------|--------------|
-----|---------------------------------5/7vvvvvvvvvvvv---------|--------------|
       End with chorus end and then    ( )Bass or Vio  m
Tap to rate this tab
# A B C D E F G H I J K L M N O P Q R S T U V W X Y Z