Guitaretab - guitar tabs
Song name
# A B C D E F G H I J K L M N O P Q R S T U V W X Y Z

Oasis - Strawberry Fields tab

Artist    : Oasis
Song      : Strawberry Fields Forever (Live Acoustic)
Capo      : Fret 2
Tunning   : Standard E-A-D-G-b-e
Tabbed by : INDIE NATION

Chords:

G     -3-2-0-0-3-3
Dm    -x-x-0-2-3-1
Dm7/C -x-3-0-2-1-1
Em    -0-2-2-0-0-0
C/G   -3-3-2-0-1-0
Cadd9 -0-3-2-0-3-3
Dsus4 -0-0-0-2-3-3
E     -0-2-2-1-0-0
D     -x-x-0-2-3-2
Dmaj7 -x-x-0-2-2-2
D7    -x-x-0-2-1-2
Em7   -0-2-0-0-0-0

Tab Ledgend:

s = slide
/ = downward slide
b = bend 
r = release bend
(H) = harmonic
h = hammer on
p = pull off
~ = vibrato


                Oasis - Strawberry Fields

             Live from Le Cabaret Sauvage in Paris



Chorus:
   G                                     Dm                    Dm7/C 
   Let me take you down 'cause I'm going to Strawberry fields
   E                    C/G            E  
   Nothing is real, and nothing to get hung about
   C/G                  G 
   Strawberry fields forever


Verse:
D         Dmaj7     D7 
Living is easy with eyes closed
Em       Em7             C/G
Misunderstanding all you see
Cadd9        Dsus4         G
It's getting hard to be someone
                 Em
But it all works out
Cadd9      Dsus4  Cadd9   G 
It doesn't matter much to me 


  Repeat Chorus


e-10\9--------------------|
B------10/8/-5/3/2--------|
G------------------2-2----|
D-------------------------|
A-------------------------|
E-------------------------|


Verse:

D        Dmaj7    D7 
No one I think is in my tree 
Em                        C/G
I mean it must be high or low 
Cadd9        Dsus4                G
That is you can't, you know, tune in 
             Em
But it's all right 
Cadd9     Dsus4      Cadd9   G 
That is I think it's not too bad 
[ Tab from: http://www.guitaretab.com/o/oasis/149600.html ]
 
 Repeat Chorus


e-10\9---------------------|
B------10------------------|
G---------12-9/7/4---------|
D--------------------------|
A--------------------------|
E--------------------------|


D      Dmaj7     D7 
Always know, sometimes think it's me 
Em                          C/G
But you know I know when it's a dream 
Cadd9        Dsus4             G
I think I know I mean, ah yes 
               Em
But it's all wrong 
Cadd9     Dsu4    Cadd9  G 
That is I think I disagree 

       
                  G          Dm                             Dm7/C
Let me take you down 'cause I'm going to Strawberry fields
E                    C/G            Em7
Nothing is real, and nothing to get hung about
C/G                   G   Em7     
Strawberry fields forever
C/G                   G   Em7
Strawberry fields forever
C/G          
Strawberry fields forever


Solo / Outro: Dm| Em C/G| Cadd9 Dsus4 G|Em| Cadd9 Dsus4 Cadd9 G|


Solo / Outro
e-------------------------------------------------------------0-0-0-0--|
B7/5/----3/2h3p2h3p2h3p2h3p2-2/14----------2h3p2h3p2h3p2h3p2-0-0-0-0--|
G----------------------------------2-2--2-2-------------------0-0-0-0--|
D------0---------------------------2-2--2-2-------------------2-2-2-2--|
A-----0-------------------------------------------------------0-0-0-0--|
E----------------------------------------------------------------------|

e-0-0-0-0--2-2--2------------------------------2--|
B-0-0-0-0--3-3--3----2h3p2h3p2h3p2h3p2h3p2h3p2-3--|
G-0-0-0-0--2-2--2------------------------------2--|
D-2-2-0-0-----------------------------------------|
A-0-0-2-2-----------------------------------------|
E-------------------------------------------------|

Thats it hope you all like it
Related for Strawberry Fields tab