Song name
# A B C D E F G H I J K L M N O P Q R S T U V W X Y Z

Oasis - Live Forever tab

Oasis - Live Forever

Standard Tuning

Chords - G   320003
         D   xx0232
	 Am7 x02013
         C   x32010
	 Em7 022033
	 F   133211

Verse

G	       D
Maybe, I don't really wanna know
	 Am7
How your garden grows
C	     D
I just wanna fly


G		D
Lately, did you ever feel the pain
       Am7
in the morning rain
      C		       D
as it soaks you to the bone


Chorus

Em7		     D
  Maybe I just wanna fly
			   Am7
Wanna live I don't wanna die
		   C
Maybe I just wanna breathe
      D		      Em7
Maybe I just don't believe
			 D
Maybe you're the same as me
			    Am7
We see things they'll never see
			    F
You and I are gonna live forever


Verse

G	       D
Maybe, I don't really wanna know
	 Am7
How your garden grows
C	     D
I just wanna fly


G		D
Lately, did you ever feel the pain
       Am7
in the morning rain
      C		       D
as it soaks you to the bone


Chorus

Em7		     D
Well maybe I will never be
			   Am7
All the things that I wanna be
		          C
But now is not the time to cry
      D		      Em7
Now's the time to find out why
			 D
I think you're the same as me
			    Am7
We see things they'll never see
			    F
You and I are gonna live forever

Solo - Played over verse
e----------------------------------------------------------------------------|
B----------------------------------------------------------------------------|
G--------12--14b16-14-12----12h14---14b16r14-12----12h14------12----12-------|
D--12h14-----------------14---------------------14-------14---12h14-12-12----|
A----------------------------------------------------------------------12h14-|
E----------------------------------------------------------------------------|

e----------------------------------------------------------------------------|
B----------------------------------------------------------------------------|
G-------------------12h14--14b16r14-12----12h14-----12----12-----------------|
D--12-----s12-12h14--------------------14-------14--12h14-12-12----12--------|
A--12--------------------------------------------------------12h14-12--------|
E----------------------------------------------------------------------------|

e-----------------------------------------------------------------------------|
B--12s17^^^^^^-17s15----15----------------------------------------------------|
G--------------------16----16-14-16-14s12-14-12----12-14-12-14b16-14-12----12-|
D-----------------------------------------------14----------------------14----|
A-----------------------------------------------------------------------------|
E-----------------------------------------------------------------------------|

e----------------------------------------------------------------------------|
B---------------------------------------------------15-17^^^^^^(*)-17s15--15-|
G-----------------12-14b16-14b16-14p12----12--14s16---------------------16---|
D--14-------12h14----------------------14------------------------------------|
A-----12h14------------------------------------------------------------------|
E----------------------------------------------------------------------------|

e---------------------------------------------------------------------------|
B---------------------------------------------------------------------------|
G-16-14-16-14s12-14-12----12-14-12-14b16-14-12h14-12----------------12------|
D----------------------14----------------------------14-------12h14---------|
A-------------------------------------------------------12h14---------------|
E---------------------------------------------------------------------------|

e-------------------------------------------------------------------------|
B-------------------------------------------------------------------------|
G--------------12--12---------------12-14-12-14b16-14b16-14-12----12------|
D--------12h14---------------12h14-----------------------------14---------|
A--12h14---------------12h14----------------------------------------------|
E-------------------------------------------------------------------------|

(*) - Sometimes live Noel plays this:

e------------15---15-17p15-17b19r17-15^^--15-(-----------------)
B-------15-17--17----------------------------(-17s15--15-------) etc.
G-14s16--------------------------------------(------16---16-14-)


Verse

G	       D
Maybe, I don't really wanna know
	 Am7
How your garden grows
C	     D
I just wanna fly


G		D
Lately, did you ever feel the pain
       Am7
in the morning rain
      C		       D
as it soaks you to the bone


Chorus

Em7		     D
  Maybe I just wanna fly
			   Am7
Wanna live I don't wanna die
		   C
Maybe I just wanna breathe
      D		      Em7
Maybe I just don't believe
			 D
Maybe you're the same as me
			    Am7
We see things they'll never see
			    F
You and I are gonna live forever

Am7                   F
   Were gonna live forever x6

(During these six lines, Noel plays this:)

e-------3-------|
B---1-----1-----|
G-0---0----0----|
D-----------3---|

Outro - Played over Am7 & F - Part 1

e|------------------|----------------|
B|-5----------------|----------------|
G|-7b9r7--5------5--|----------------|
D|----------7--7----|----------------|
A|------------------|---3---2---0----|
E|------------------|----------------|

e|----------------------|--------------------|
B|----------------------|--------------------|
G|--------5-5-----------|-5------------------|
D|--5h7-5-----7-5h7-5h7-|---7----------------|
A|----------------------|--------3---2---0---|
E|----------------------|--------------------|

e|------------------------------|----------------------|
B|--5---------------------------|----------------------|
G|--7b9-7p5-7p5-7b9-7-5-7-5-7-5-|----------------------|
D|------------------------------|-7--------------------|
A|------------------------------|----------3---2---0---|
E|------------------------------|----------------------|

e|------------------------------|----------------------|
B|--5---------------------------|----------------------|
G|--7b9-7p5-7p5-7b9-7-5-7-5-7-5-|----------------------|
D|------------------------------|-7--------------------|
A|------------------------------|----------3---2---0---|
E|------------------------------|----------------------|

Note - On the A|-3-2-0- bit, I personally sometimes play

A|--3--2-------|
E|--------3s5--|

Outro Part 2 (Studio Version)

e|--------0-------------|----------0--------------|
B|---0--0---------------|---5-5--5-0--------------|
G|---5------------------|---5-5--5-0--------------|
D|----------5h7-7-5h7-7-|-------------7-7-5h7-5h7-|
A|----------------------|-------------------------|
E|----------------------|-------------------------|


e|----------0--------------|----------0---------------|
B|---5-5--5-0--------------|---5-5--5-0---------------|
G|---5-5--5-0--------------|---5-5--5-0---------------|
D|-------------7-7-5h7-5h7-|-------------7-7-5h7-5h7--|
A|-------------------------|--------------------------|
E|-------------------------|--------------------------|

e|------------------------------|
B|--------------5---5-----------|
G|---------5--5-----------------|
D|-----5h7------------7-5h7-5h7-|
A|-5h7--------------------------|
E|------------------------------|

e|--------0--------------|------------0--------------|
B|-5-5--5-0--------------|-----5-5--5-0--------------|
G|-5-5--5-0--------------|-----5-5--5-0--------------|
D|-----------7-7-5h7-5h7-|-7s2-----------7-7-5h7-5h7-|
A|-----------------------|---------------------------|
E|-----------------------|---------------------------|

e|----------0--------------|---------|
B|---5-5--5-0--------------|---------|
G|---5-5--5-0--------------|---------|
D|-7-----------7-7-5h7-5h7-|-7^^^----|
A|-------------------------|---------|
E|-------------------------|---------|

Outro Part 2 (Familiar To Millions Version)

e|---------------|-----------------|
B|---------------|-----------------|
G|-4b6-2-4b6---2-|-2p0h2--5-5-2^^--|
D|---------------|-----------------|
A|---------------|-----------------|
E|---------------|-----------------|

e|---------------|-----------------|
B|---------------|----------3------|
G|-4b6-2-4b6---2-|-2p0h2--5---2^^--|
D|---------------|-----------------|
A|---------------|-----------------|
E|---------------|-----------------|

e|---------------|-----------------|
B|---------------|-----------------|
G|-4b6-2-4b6---2-|-2p0h2--5-5-2^^--|
D|---------------|-----------------|
A|---------------|-----------------|
E|---------------|-----------------|

e|---------------|------------------|------------|
B|---------------|------------------|------------|
G|-4b6-2-4b6---2-|-2-0--------------|------------|
D|---------------|-----0------------|------------|
A|---------------|-------3-3s5--5b7-|-7r5-3-0^^^-|
E|---------------|------------------|------------|

| /  slide up
| \  slide down
| h  hammer-on
| p  pull-off
| ~  vibrato
| +  harmonic
| x  Mute note

Enjoy!
Tap to rate this tab
 
# A B C D E F G H I J K L M N O P Q R S T U V W X Y Z