Song name
# A B C D E F G H I J K L M N O P Q R S T U V W X Y Z

Oasis - Morning Glory tab

-------------------------------------------------------------------------------
			     MORNING GLORY - Oasis
-------------------------------------------------------------------------------

Chords used:

Em7	(022030)
D	(xx0232)
Dsus4	(xx0233)
A7sus4	(x02030)
Cadd9	(x32030)
Dsus2	(xx0230)
B	(x24442)


Intro


e-----------------|-----------------|
B--------3--3--3--|--3--------(3)^--|
G-----------------|-----------------| x17
D-----------------|-----------------|
A-----------------|-----------------|
E-----------------|-----------------|

  Em7               D    Dsus4  D
e-----------------|-----------------|
B-----------------|--3-3-3-3-3-3-3--|
G-----------------|--2-2-2-2-2-2-2--| x4
D-----2--------0--|--0-0-0-0-0-0-0--|
A-----2----0-2----|-----------------|
E--0-----3--------|-----------------|


Verse 1

  Em7               D    Dsus4  D
e-----------------|-----------------|
B-----------------|--3-3-3-3-3-3-3--|
G-----------------|--2-2-2-2-2-2-2--| x2
D-----2--------0--|--0-0-0-0-0-0-0--|
A-----2----0-2----|-----------------|
E--0-----3--------|-----------------|

  Em7               D    Dsus4  D     A7sus4            Cadd9
e-----------------|-----------------|---0-----0-------|---0-----0-------|
B-----------------|--3-3-3-3-3-3----|-----3-----3-----|-----3-----3-----|
G-----------------|--2-2-2-2-2-2----|-------0-----0---|-------0-----0-0-|
D-----2--------0--|--0-0-0-0-0-0-2--|-----------------|-----------------|
A-----2----0-2----|--------------0--|-0-------------3-|-----------------|
E--0-----3--------|-----------------|-----------------|-----------------|

  Em7               D    Dsus4  D
e-----------------|-----------------|
B-----------------|--3-3-3-3-3-3-3--|
G-----------------|--2-2-2-2-2-2-2--| x2
D-----2--------0--|--0-0-0-0-0-0-0--|
A-----2----0-2----|-----------------|
E--0-----3--------|-----------------|

  Em7               D    Dsus4  D     A7sus4            Cadd9
e-----------------|-----------------|---0-----0-------|---0-----0-------|
B-----------------|--3-3-3-3-3-3----|-----3-----3-----|-----3-----3-----|
G-----------------|--2-2-2-2-2-2----|-------0-----0---|-------0-----0-0-|
D-----2--------0--|--0-0-0-0-0-0-2--|-----------------|-----------------|
A-----2----0-2----|--------------0--|-0-------------3-|-----------------|
E--0-----3--------|-----------------|-----------------|-----------------|


Pre-Chorus

  Dsus2             Cadd9
e-----0-----------|-----0-----------|
B-------3-----3---|-------3-----3---|
G---2-------2-----|---0-------0---0-| x3
D-0-------0-------|-----------------|
A---------------3-|---------3-------|
E-----------------|-----------------|

  D                 D                 B                 B
e-----0-----------|-----------------|-----------------|-----------------|
B-------3-----3---|-----3---3-------|---4-4-4-4-4-4-4-|-4-4-4-4-4-4-4-4-|
G---2-------2-----|---2---2---2-----|---4-4-4-4-4-4-4-|-4-4-4-4-4-4-4-4-|
D-0-------0-----0-|-------------0---|---4-4-4-4-4-4-4-|-4-4-4-4-4-4-4-4-|
A-----------------|---------------2-|---------2-2-2-2-|-2-2-2-2-2-2-2-2-|
E-----------------|-----------------|-----------------|-----------------|


Chorus

  Em7               D    Dsus4  D     A7sus4            Cadd9
e-----------------|-----------------|-----0-----0-0---|---0-0-0-0-0-0-0-|
B-----------------|--3-3-3-3-3-3-3--|-----3-----3-3-3-|---3-3-3-3-3-3-3-|
G-----------------|--2-2-2-2-2-2-2--|-----2-----2-2-0-|---0-0-0-0-0-0-0-| x3
D-----2--------0--|--0-0-0-0-0-0-0--|-----2-----2-2-2-|-----------------|
A-----2----0-2----|-----------------|-0-------------3-|-----------------|
E--0-----3--------|-----------------|-----------------|-----------------|

  Em7               D    Dsus4  D     A7sus4            Cadd9
e-----------------|-----------------|-----0-----0-0---|---0-0-0---------|
B-----------------|--3-3-3-3-3-3-3--|-----3-----3-3-3-|---3-3-3-3--3--3-|
G-----------------|--2-2-2-2-2-2-2--|-----2-----2-2-0-|---0-0-0---------|
D-----2--------0--|--0-0-0-0-0-0-0--|-----2-----2-2-2-|-----------------|
A-----2----0-2----|-----------------|-0-------------3-|-----------------|
E--0-----3--------|-----------------|-----------------|-----------------|


Solo


e-----------------|
B--3--------(3)^--|
G-----------------|
D-----------------|
A-----------------|
E-----------------|


e-----------------|-----------------|
B--------3--3--3--|--3--------(3)^--|
G-----------------|-----------------| x3
D-----------------|-----------------|
A-----------------|-----------------|
E-----------------|-----------------|


e-----------------|
B--------3--3--3--|
G-----------------|
D-----------------|
A-----------------|
E-----------------|

  Em7                 D    Dsus4  D       Em7                 D    Dsus4  D
e-------------------|-------------------|---12--------------|-----------------|
B-12^--10-8-10-8----|---------8-10-8-10^|------10-8-10-8-10^|---------8---8---|
G-----------------9-|---9-9-9-----------|-------------------|---9-9-9---9-----|
D-------------------|-------------------|-------------------|-----------------|
A-------------------|-------------------|-------------------|-----------------|
E-------------------|-------------------|-------------------|-----------------|

  Em7                 D    Dsus4  D       Em7                 D    Dsus4  D
e-------------------|-------------------|-12----12-12-----12|------12---------|
B12^-10-8-10-8-10---|---------8-10-8-10^|----10^---10^-10^--|-10^-----10^-----|
G-----------------12|---9-7-9-----------|-------------------|-----------------|
D-------------------|-------------------|-------------------|-----------------|
A-------------------|-------------------|-------------------|-----------------|
E-------------------|-------------------|-------------------|-----------------|


Verse 2

  Em7               D    Dsus4  D
e-----------------|-----------------|
B-----------------|--3-3-3-3-3-3-3--|
G-----------------|--2-2-2-2-2-2-2--| x2
D-----2--------0--|--0-0-0-0-0-0-0--|
A-----2----0-2----|-----------------|
E--0-----3--------|-----------------|

  Em7               D    Dsus4  D     A7sus4            Cadd9
e-----------------|-----------------|---0-----0-------|---0-----0-------|
B-----------------|--3-3-3-3-3-3----|-----3-----3-----|-----3-----3-----|
G-----------------|--2-2-2-2-2-2----|-------0-----0---|-------0-----0-0-|
D-----2--------0--|--0-0-0-0-0-0-2--|-----------------|-----------------|
A-----2----0-2----|--------------0--|-0-------------3-|-----------------|
E--0-----3--------|-----------------|-----------------|-----------------|

  Em7               D    Dsus4  D
e-----------------|-----------------|
B-----------------|--3-3-3-3-3-3-3--|
G-----------------|--2-2-2-2-2-2-2--| x2
D-----2--------0--|--0-0-0-0-0-0-0--|
A-----2----0-2----|-----------------|
E--0-----3--------|-----------------|

  Em7               D    Dsus4  D     A7sus4            Cadd9
e-----------------|-----------------|---0-----0-------|---0-----0-------|
B-----------------|--3-3-3-3-3-3----|-----3-----3-----|-----3-----3-----|
G-----------------|--2-2-2-2-2-2----|-------0-----0---|-------0-----0-0-|
D-----2--------0--|--0-0-0-0-0-0-2--|-----------------|-----------------|
A-----2----0-2----|--------------0--|-0-------------3-|-----------------|
E--0-----3--------|-----------------|-----------------|-----------------|


Pre-Chorus

  Dsus2             Cadd9
e-----0-----------|-----0-----------|
B-------3-----3---|-------3-----3---|
G---2-------2-----|---0-------0---0-| x3
D-0-------0-------|-----------------|
A---------------3-|---------3-------|
E-----------------|-----------------|

  D                 D                 B                 B
e-----0-----------|-----------------|-----------------|-----------------|
B-------3-----3---|-----3---3-------|---4-4-4-4-4-4-4-|-4-4-4-4-4-4-4-4-|
G---2-------2-----|---2---2---2-----|---4-4-4-4-4-4-4-|-4-4-4-4-4-4-4-4-|
D-0-------0-----0-|-------------0---|---4-4-4-4-4-4-4-|-4-4-4-4-4-4-4-4-|
A-----------------|---------------2-|---------2-2-2-2-|-2-2-2-2-2-2-2-2-|
E-----------------|-----------------|-----------------|-----------------|


Chorus

  Em7               D    Dsus4  D     A7sus4            Cadd9
e-----------------|-----------------|-----0-----0-0---|---0-0-0-0-0-0-0-|
B-----------------|--3-3-3-3-3-3-3--|-----3-----3-3-3-|---3-3-3-3-3-3-3-|
G-----------------|--2-2-2-2-2-2-2--|-----2-----2-2-0-|---0-0-0-0-0-0-0-| x6
D-----2--------0--|--0-0-0-0-0-0-0--|-----2-----2-2-2-|-----------------|
A-----2----0-2----|-----------------|-0-------------3-|-----------------|
E--0-----3--------|-----------------|-----------------|-----------------|

  Em7                 D    Dsus4  D       Em7                 D    Dsus4  D
e-------------------|-------------------|---12--------------|-----------------|
B-12^--10-8-10-8----|---------8-10-8-10^|------10-8-10-8-10^|---------8---8---|
G-----------------9-|---9-9-9-----------|-------------------|---9-9-9---9-----|
D-------------------|-------------------|-------------------|-----------------|
A-------------------|-------------------|-------------------|-----------------|
E-------------------|-------------------|-------------------|-----------------|

  Em7                 D    Dsus4  D       Em7                 D    Dsus4  D
e-------------------|-------------------|-12----12-12-----12|------12---------|
B12^-10-8-10-8-10---|---------8-10-8-10^|----10^---10^-10^--|-10^-----10^-----|
G-----------------12|---9-7-9-----------|-------------------|-----------------|
D-------------------|-------------------|-------------------|-----------------|
A-------------------|-------------------|-------------------|-----------------|
E-------------------|-------------------|-------------------|-----------------|

  Em7                     D    Dsus4  D     
e-----------------------|------------------------|
B-12~~~12~~~12~12~12~12~|-12~~~12~12~12~10~---10~|
G-----------------------|------------------11~---| x4
D-----------------------|------------------------|
A-----------------------|------------------------|
E-----------------------|------------------------|


  Em7               D    Dsus4  D     
e-----------------|-----------------|
B-----------------|-----------------|
G/9~~~9~~~9~9~9~9~|-9~~~9~9~9~7~--7~| x4
D-----------------|-------------9~--|
A-----------------|-----------------|
E-----------------|-----------------|

  Em7
e-----------------|
B-----------------|
G-----------------|
D-2---------------|
A-2---------------|
E-0---------------|


| ^  bend string
| /  slide up
| \  slide down
| h  hammer-on
| p  pull-off
| ~  vibrato
| +  harmonic
| x  Mute note
===============================================================================

Tap to rate this tab
 
# A B C D E F G H I J K L M N O P Q R S T U V W X Y Z