Song name
# A B C D E F G H I J K L M N O P Q R S T U V W X Y Z

Oasis - Champagne Supernova tab

-------------------------------------------------------------------------------
			     Champagne Supernova - Oasis
-------------------------------------------------------------------------------
Tabbed by:stratocaster11

Tuning:Standard

You will have to listen to the song for the order of the bits and how to play the solo. 
links below are the two versions of the song that i used to learn the song.
http://www.youtube.com/watch?v=DzOQ-shPKV4 (Live version)
http://www.youtube.com/watch?v=g3C7DECI0jU (Studio version)

Intro and verses:
e|--------------------------------------------------------------------|
B|-----------0--------------------0---------------------0-------------|
G|--------2-----2--------------2-----2---------------2-----2----------|
D|-----2-----------2--------2-----------2---------2-----------2-------|
A|--0-----------------0--------------------0---------------------0----|
E|-----------------------3--------------------2---------------------0-|

e|-------------------|
B|--------0----------|
G|-----2-----2-------|
D|--2-----------2----|
A|-------------------|
E|-----------------0-|
This is played throughout the verses.

This bit comes at the beginning and once behind the singing:
e|--4--------4----------------------------------|
B|-----4--6--------------------------5-----3----|
G|--------------------2--------2--6-----4-----2-|
D|--------------2--4-----2--4-------------------|
A|----------------------------------------------|
E|----------------------------------------------|

Chorus:
The first chord E is played just before the chorus

    E  A  G  D  E
e|--0--0--3--2--0-|
B|--0--2--3--3--0-|
G|--1--2--0--2--1-|
D|--2--2--0--0--2-|
A|--2--0--2--0--2-|
E|--0--0--3--0--0-|

This riff is played on two guitars:
Guitar 1:
e|-----------------------------------|
B|-----------------------------------|
G|--4b--2-----2-----------------2--4-|
D|---------4-----4--------2--4-------|
A|------------------2--4-------------|
E|-----------------------------------|
This is played twice then the third time It's played like this:

e|-----------------------------------------|
B|---------------------------------------5-|
G|--4b--2-----2-----------------2--4--6----|
D|---------4-----4--------2--4-------------|
A|------------------2--4-------------------|
E|-----------------------------------------|

Guitar 2:
e|--------------------------------------------|
B|--12b--10------10--------------------10--12-|
G|-----------11------11---------9--11---------|
D|-----------------------9--11----------------|
A|--------------------------------------------|
E|--------------------------------------------|
Same as other riff this is played twice then the third time it's played like this:

e|-------------------------------------------------12-|
B|--12b--10------10--------------------10--12--14-----|
G|-----------11------11---------9--11-----------------|
D|-----------------------9--11------------------------|
A|----------------------------------------------------|
E|----------------------------------------------------|

Now for the tricky bit, the solo. I have listened to the studio and live version of this 
and it's played differently in both. This solo is the power tab version of the song 
which i think sounds good but not spot on.
e|-----------------------------------------------------------------------|
B|------------------------------------------8----------------------------|
G|--7b--7b--7b--7--5--------5-----5--7--7b-----5--7--5-----------5-----5-|
D|--------------------5--7-----7------------------------7--5--7-----7----|
A|-----------------------------------------------------------------------|
E|-----------------------------------------------------------------------|

e|-------------------------------------------------------|
B|-------------------------------------------------------|
G|-----5--5----------------------------------------------|
D|--7--------7--7--7--7--------5-------------------------|
A|-----------------------5--7-----7--7--6--5-----------3-|
E|--------------------------------------------5--3--5----|

e|-------------------------------------8-------------------------|
B|--13--10--8--10--10b--8--10--10--10-----10--10--10b--8--10--10-|
G|---------------------------------------------------------------|
D|---------------------------------------------------------------|
A|---------------------------------------------------------------|
E|---------------------------------------------------------------|

e|----------17--17--21b--17------17------17--17--17--17--17--20--17-|
B|--17--20-------------------20------20-----------------------------|
G|------------------------------------------------------------------|
D|------------------------------------------------------------------|
A|------------------------------------------------------------------|
E|------------------------------------------------------------------|

e|--17--17--17-----------------------------|
B|--------------17--15--12--12--13--12--10-|
G|-----------------------------------------|
D|-----------------------------------------|
A|-----------------------------------------|
E|-----------------------------------------|

e|--12--13--12----------15------13--12-----|
B|--------------15--13------13----------13-|
G|-----------------------------------------|
D|-----------------------------------------|
A|-----------------------------------------|
E|-----------------------------------------|

e|--12--13--12-----------------------------------------------------|
B|--------------15--13--15--13------13-----------------------------|
G|------------------------------14------14--12--14--12-------------|
D|------------------------------------------------------14--12--10-|
A|-----------------------------------------------------------------|
E|-----------------------------------------------------------------|

e|--12--13--12----------15------13--12-----|
B|--------------15--13------13----------13-|
G|-----------------------------------------|
D|-----------------------------------------|
A|-----------------------------------------|
E|-----------------------------------------|

e|--------------------------------------|
B|--------------------------------------|
G|--9--10--9----------12------10--9-----|
D|------------12--10------10---------10-|
A|--------------------------------------|
E|--------------------------------------|

e|---------------------------------|
B|---------------------------------|
G|--12--10------10-----------------|
D|----------12------12--10---------|
A|---------------------------------|
E|--------------------------12--10-|

e|----------------------15-----|
B|--------------13--15------15-|
G|------12--14-----------------|
D|--14-------------------------|
A|-----------------------------|
E|-----------------------------|

e|-----------------------------|
B|------13------13--13---------|
G|--14------14----------14--14-|
D|-----------------------------|
A|-----------------------------|
E|-----------------------------|

e|-------------------------|
B|------13--15--13---------|
G|--14--------------14--14-|
D|-------------------------|
A|-------------------------|
E|-------------------------|

e|-------------------------|
B|------13--13--15--13-----|
G|--14------------------14-|
D|-------------------------|
A|-------------------------|
E|-------------------------|

e|--------------------|
B|--------------------|
G|--------------------|
D|--------------------|
A|--------------------|
E|--3slide--2slide--0-|

I know it looks a bit messy but this is how I learnt it by separating it into separate lines.

This is all I know of the song and if any one has a more accurate version of the solo 
they please email it to me at:
stratocaster11@hotmail.co.uk
Tap to rate this tab
 
# A B C D E F G H I J K L M N O P Q R S T U V W X Y Z