Song name
# A B C D E F G H I J K L M N O P Q R S T U V W X Y Z

Oasis - Live Forever tab

Help us improve GuitareTab! Take a short survey!
                  LIVE FOREVER
                              As recorded by Oasis
                     (From the 1994 Album DEFINATELY MAYBE)

Words and Music by Noel Gallagher
Arranged by Noel Gallagher
Transcribed by The Fury

           G                    D                   Am7                   C
      3 2 0 0 0 3          x x 0 2 3 2          x 0 2 0 1 0          x 3 2 0 1 0

          Em7                   F
      0 2 2 0 3 3          1 3 3 2 1 1

Gtr I (E A D G B E) - 'Lead'
Gtr II (E A D G B E) - 'Rhythm'

 Intro        Verse
  Q=90
               G                     D
 4/4
  Gtr II
  W            Q  E. S S S E E S S   Q E. S S S E E S S
               |  |  | | | | | | |   | |  | | | | | | |
               /  /  / / / / / / /   / /  / / / / / / /

  Gtr I
  Wx4          W                     W
|------------|---------------------|--------------------|
|------------|---------------------|--------------------|
|------------|---------------------|--------------------|
|------------|---------------------|--------------------|
|------------|---------------------|--------------------|
|------------|---------------------|--------------------|


  Am7                   C       D             G
  Q  E. S S S E E S S   Q  E. S S S E E S S   Q  E. S S S E E S S
  |  |  | | | | | | |   |  |  | | | | | | |   |  |  | | | | | | |
  /  /  / / / / / / /   /  /  / / / / / / /   /  /  / / / / / / /

  W                     W                     W
|---------------------|---------------------|----------------------|
|---------------------|---------------------|----------------------|
|---------------------|---------------------|----------------------|
|---------------------|---------------------|----------------------|
|---------------------|---------------------|----------------------|
|---------------------|---------------------|----------------------|


  D                     Am7                   C      D
  Q  E. S S S E E S S   Q  E. S S S E E S S   Q E. S S S E E S S
  |  |  | | | | | | |   |  |  | | | | | | |   | |  | | | | | | |
  /  /  / / / / / / /   /  /  / / / / / / /   / /  / / / / / / /

  W                     W                     W
|---------------------|---------------------|--------------------|
|---------------------|---------------------|--------------------|
|---------------------|---------------------|--------------------|
|---------------------|---------------------|--------------------|
|---------------------|---------------------|--------------------|
|---------------------|---------------------|--------------------|


 Chorus
  Em7                   D                       Am7
  Q  E. S S S E E S S   Q  E. S  S  S E E S S   Q  E. S  S  S E E S S
  |  |  | | | | | | |   |  |  |  |  | | | | |   |  |  |  |  | | | | |
  /  /  / / / / / / /   /  /  /  /  / / / / /   /  /  /  /  / / / / /

  Q  E. S S S E E S S   Q  E. S +S  S E E S S   Q  E. S +S  S E E S S
|----3--3-3-3-3-3-3-3-|-2--2--3-(3)-2---2-----|-0--0--0-(0)-0-0-0-0-0--|
|----3--3-3-3-3-3-3-3-|-3--3----------3-3-0-0-|-1--1--1-(1)-1-1-1-1-1--|
|-0--0--0-0-0-0-0-0-0-|-2--2------------2-0-0-|-0--0--0-(0)-0-0-0-0-0--|
|-2--2--2-2-2-2-2-2-2-|-0--0------------0-0-0-|-2--2--2-(2)-2-2-2-2-2--|
|-2--2--2-2-2-2-2-2-2-|-----------------------|-0--0--0-(0)-0-0-0-0-0--|
|-0--0--0-0-0-0-0-0-0-|-----------------------|------------------------|
                        Q  H            Q


  C       D             Em7                   D
  Q  E. S S S E E S S   Q  E. S S S E E S S   Q  E. S  S  S E E S S
  |  |  | | | | | | |   |  |  | | | | | | |   |  |  |  |  | | | | |
  /  /  / / / / / / /   /  /  / / / / / / /   /  /  /  /  / / / / /

  Q  E. S S S E E S S   Q  E. S S S E E S S   Q  E. S +S  S E E S S
|-0--0--0-2-2-2-2-2-2-|----3--3-3-3-3-3-3-3-|-2--2--3-(3)-2---2------|
|-1--1--1-3-3-3-3-3-3-|----3--3-3-3-3-3-3-3-|-3--3----------3-3-0-0--|
|-0--0--0-2-2-2-2-2-2-|-0--0--0-0-0-0-0-0-0-|-2--2------------2-0-0--|
|-2--2--2-0-0-0-0-0-0-|-2--2--2-2-2-2-2-2-2-|-0--0------------0-0-0--|
|-3--3--3-------------|-2--2--2-2-2-2-2-2-2-|------------------------|
|---------------------|-0--0--0-0-0-0-0-0-0-|------------------------|
                                              Q  H            Q


  Am7                 F
  Q  E. S S S E E E   Q    E.   S  S  S E  E  S S   Q   E.   S  S  S E E S S
  |  |  | | | | | |   |    |    |  |  | |  |  | |   |   |    |  |  | | | | |
  /  /  / / / / / /   /    /    /  /  / /  /  / /   /   /    /  /  / / / / /

  Q  E. S S S E E E   E  E E  E   +E    E  Q        E E E  E   +E    E E E
|-0--0--0-0-0-0-0-0-|---------3---(3)-------------|--------3---(3)-----------|
|-1--1--1-1-1-1-1-1-|----1--------------1---------|---1--------------1-------|
|-0--0--0-0-0-0-0-0-|------0---------------0------|-0---0--------------0-0---|
|-2--2--2-2-2-2-2-2-|-3-------------------(3)-3---|----------------------0---|
|-0--0--0-0-0-0-0-0-|-----------------------------|--------------------------|
|-------------------|-----------------------------|--------------------------|
                      H.                  +E  E


 Verse
  $
  G                                  D
  Q  E. S  S  S  E      E      S S   Q  E. S S S E    E    S S
  |  |  |  |  |  |      |      | |   |  |  | | | |    |    | |
  /  /  /  /  /  /      /      / /   /  /  / / / /    /    / /

  H        S  S  S  S  +S   S  E     H       E.    S +S  S E   a
|-3--------------------------------|-----------------------------|
|-0----------------13-(13)-12-12S==|=7-------------8-(8)-7-------|
|-0-------12----12-12-(12)-12-12S==|=7-------7-------------7s==2-|
|-0-------12h14-14-14-(14)-12-12S==|=7-------7h9-9---(9)---------|
|----------------------------------|-----------------------------|
|-3--------------------------------|-----------------------------|
                                     H       S S E   +E    E


  Am7                   C           D
  Q  E. S S S E E S S   Q    E.   S S S E E S S
  |  |  | | | | | | |   |    |    | | | | | | |
  /  /  / / / / / / /   /    /    / / / / / / /

  W                     Q.      E   H
|-0-------------------|-------------------------|
|-1-------------------|-1-------7---7-----7S====|
|-0-------------------|----0----7---7-----7S====|
|-2-------------------|------2--7h9-7-----7S====|
|-0-------------------|-------------------------|
|---------------------|-------------------------|
                        E  E E  S S Q     Q


  G
   Q  E. S  S  S  E      E     S S
   |  |  |  |  |  |      |     | |
   /  /  /  /  /  /      /     / /

   H        E     S  S  +S   E.
|----------------------------------|
|-12----------------13-(13)-12S====|
|-12-------12----12-----12--12S====|
|-12-------12h14-14----(14)-12S====|
|----------------------------------|
|----------------------------------|
   H        S  S  E      S   E.


  D                             Am7                   C           D
  Q  E. S S S E    E    S S     Q  E. S S S E E S S   Q    E.   S S S E E S S
  |  |  | | | |    |    | |     |  |  | | | | | | |   |    |    | | | | | | |
  /  /  / / / /    /    / /     /  /  / / / / / / /   /    /    / / / / / / /

  H       E.    S +S  S E   a   W                     Q.      E   H
|-----------------------------|-0-------------------|-------------------2-2-2-|
|-7-------------8-(8)-7-------|-1-------------------|-1-------7-8-7-----3-3-3-|
|-7-------7-------------7s==2-|-0-------------------|----0----7-7-7-----2-2-2-|
|-7-------7h9-9---(9)---------|-2-------------------|------2--7-9-7-----0-0-0-|
|-----------------------------|-0-------------------|-------------------------|
|-----------------------------|---------------------|-------------------------|
  H       S S E   +E    E                             E  E E  S S Q     E S S


 Chorus
  Em7                     D                         Am7
  Q E. S  S S E E S S     Q E. S  S  S  E E S S     Q E. S  S  S  E E S S
  | |  |  | | | | | |     | |  |  |  |  | | | |     | |  |  |  |  | | | |
  / /  /  / / / / / /     / /  /  /  /  / / / /     / /  /  /  /  / / / /

  Q    E. S S S E E S S   Q    E. S +S  S E E S S   Q    E. S +S  S E E S S
|------3--3-3-3-3-3-3-3-|-2----2--3-(3)-2---2-----|-0----0--0-(0)-0-0-0-0-0--|
|------3--3-3-3-3-3-3-3-|-3----3----------3-3-0-0-|-1----1--1-(1)-1-1-1-1-1--|
|-0----0--0-0-0-0-0-0-0-|-2----2------------2-0-0-|-0----0--0-(0)-0-0-0-0-0--|
|-2----2--2-2-2-2-2-2-2-|-0----0------------0-0-0-|-2----2--2-(2)-2-2-2-2-2--|
|-2----2--2-2-2-2-2-2-2-|-------------------------|-0----0--0-(0)-0-0-0-0-0--|
|-0----0--0-0-0-0-0-0-0-|-------------------------|--------------------------|
                          Q    H            Q


  C         D           Em7                   D
  Q  E. S S S E E S S   Q  E. S S S E E S S   Q  E. S  S  S E E S S
  |  |  | | | | | | |   |  |  | | | | | | |   |  |  |  |  | | | | |
  /  /  / / / / / / /   /  /  / / / / / / /   /  /  /  /  / / / / /

  Q  E. S S S E E S S   Q  E. S S S E E S S   Q  E. S +S  S E E S S
|-0--0--0-2-2-2-2-2-2-|----3--3-3-3-3-3-3-3-|-2--2--3-(3)-2---2------|
|-1--1--1-3-3-3-3-3-3-|----3--3-3-3-3-3-3-3-|-3--3----------3-3-0-0--|
|-0--0--0-2-2-2-2-2-2-|-0--0--0-0-0-0-0-0-0-|-2--2------------2-0-0--|
|-2--2--2-0-0-0-0-0-0-|-2--2--2-2-2-2-2-2-2-|-0--0------------0-0-0--|
|-3--3--3-------------|-2--2--2-2-2-2-2-2-2-|------------------------|
|---------------------|-0--0--0-0-0-0-0-0-0-|------------------------|
                                              Q  H            Q


                                                   Guitar Solo
                                         To Coda
  Am7                 F
  Q  E. S S S E E E   Q    E.   S  S  S E  E  S S   Q   E.   S  S  S E E  S  S
  |  |  | | | | | |   |    |    |  |  | |  |  | |   |   |    |  |  | | |  |  |
  /  /  / / / / / /   /    /    /  /  / /  /  / /   /   /    /  /  / / /  /  /

  Q  E. S S S E E E   E  E E  E   +E    E  Q        E E E  E   +E    E E  S  S
|-0--0--0-0-0-0-0-0-|---------3---(3)-------------|--------3---(3)-------------|
|-1--1--1-1-1-1-1-1-|----1--------------1---------|---1--------------1---------|
|-0--0--0-0-0-0-0-0-|------0---------------0------|-0---0--------------0-------|
|-2--2--2-2-2-2-2-2-|-3-------------------(3)-3---|----------------------12h14-|
|-0--0--0-0-0-0-0-0-|-----------------------------|----------------------------|
|-------------------|-----------------------------|----------------------------|
                      H.                  +E  E


  G
   Q E. S S   S   E       E    S   S
   | |  | |   |   |       |    |   |
   / /  / /   /   /       /    /   /

   H         +E   E      +S   +S   S  S
|----------------------------------------|
|----------------------------------------|
|-12--------(12)-14b16==(14)r(14)-12-----|
|------------------------------------14--|
|----------------------------------------|
|----------------------------------------|


  D
   Q  E.   S  S   S   E       E    S   S
   |  |    |  |   |   |       |    |   |
   /  /    /  /   /   /       /    /   /

   S  E.  +Q     +E   E      +S   +S   S  S
|-------------------------------------------|
|-------------------------------------------|
|-12h14--(14)---(14)-14b16==(14)r(14)-12----|
|----------------------------------------14-|
|-------------------------------------------|
|-------------------------------------------|


  Am7                           C                     D
   Q         E. S S S E E S S    Q         E.       S  S  S  E E   S S
   |         |  | | | | | | |    |         |        |  |  |  | |   | |
   /         /  / / / / / / /    /         /        /  /  /  / /   / /

   S  S  E  +H.                  E     E  +S  S  E     Q       S S E
|-----------------------------|----------------------------------------|
|-----------------------------|----------------------------------------|
|-12h14-----------------------|-12----12-(12)-x--------------------0---|
|-------14-(14)---------------|-12h14-12-(12)-x-12----12-------x-x-0---|
|-----------------------------|-----------------12h14-12h14-12-x-x-----|
|-----------------------------|----------------------------------------|
                                 S  S  E  +S  S  S  S  S  S  E S S E


  G
  Q  E. S  S  S    E  E     S S
  |  |  |  |  |    |  |     | |
  /  /  /  /  /    /  /     / /

  H       +E    a  E  S  E.
|-------------------------------|
|-0-------(0)-------------------|
|-0-------(0)-------------------|
|-0-------(0)---9s12-12h14------|
|-------------------------------|
|-------------------------------|


  D                                           Am7
   Q       E. S   S  S  E       E      S  S    Q         E. S S S E E S S
   |       |  |   |  |  |       |      |  |    |         |  | | | | | | |
   /       /  /   /  /  /       /      /  /    /         /  / / / / / / /

   S  E.  +Q     +E     E      +S   S  S  S    S  S  E  +H.
|-------------------------------------------|-----------------------------|
|-------------------------------------------|-----------------------------|
|-12h14--(14)---(14)---14b16==(14)r14p12----|-12h14-----------------------|
|----------------------------------------14-|-------14-(14)---------------|
|-------------------------------------------|-----------------------------|
|-------------------------------------------|-----------------------------|


  C                   D
   Q         E.     S   S  S  E   E   S       S
   |         |      |   |  |  |   |   |       |
   /         /      /   /  /  /   /   /       /

   E     E  +E   E     +E     E  +E   E
|-------------------------------------------------|
|------------------------------------12-(12)s17---|
|-12----12-(12)-12----(12)---12-(12)--------------|
|-12h14-12-(12)-12h14-(14)---12-(12)--------------|
|-------------------------------------------------|
|-------------------------------------------------|
   S  S  E  +E   S  S  +E     E  +E   S   a   S


  Em7                              D
   Q     E.    S  S S  E  E  S S    Q           E.       S       S  S  E     E  S  S
   |     |     |  | |  |  |  | |    |           |        |       |  |  |     |  |  |
   /     /     /  / /  /  /  / /    /           /        /       /  /  /     /  /  /

   E  E  E   E    E    E  E  E      S  S  S  S  S  S  S  S   a   S  S  S  S  E  S  S
|--------------------------------|---------------------------------------------------|
|-17-17-17--17---17---17-17-17---|-17p15----15---------------------------------------|
|--------------------------------|-------16----16p14-16-14-(14)s12-14p12----12-14p12-|
|--------------------------------|---------------------------------------14----------|
|--------------------------------|---------------------------------------------------|
|--------------------------------|---------------------------------------------------|


  Am7
   Q             E.      S  S S  E     E     S S
   |             |       |  | |  |     |     | |
   /             /       /  / /  /     /     / /

   S     +S   E  S  S  E    E    S  S  S  S  E
|------------------------------------------------|
|------------------------------------------------|
|-14b16-(14)-14-12h14p12--------------------12---|
|--------------------------14---------12h14------|
|-------------------------------12h14------------|
|------------------------------------------------|


        C                           D
          Q              E.       S   S   S     E  E  S S
          |              |        |   |   |     |  |  | |
          /              /        /   /   /     /  /  / /

   a     +E   a     +E   S  S  S  S  +S   S  a  E  e  E
|---------------------------------------------------------|
|-------------------------------------------------15-17---|
|-14b16-(14)-14b16-(14)-14p12----12-(12)-12-14s16---------|
|-----------------------------14--------------------------|
|---------------------------------------------------------|
|---------------------------------------------------------|


  Em7                              D
   Q     E.    S  S S  E  E  S S    Q           E.       S       S  S  E     E  S  S
   |     |     |  | |  |  |  | |    |           |        |       |  |  |     |  |  |
   /     /     /  / /  /  /  / /    /           /        /       /  /  /     /  /  /

   E  E  E   E    E    E  E  E      S  S  S  S  S  S  S  S   a   S  S  S  S  E  S  S
|--------------------------------|---------------------------------------------------|
|-17-17-17--17---17---17-17-17---|-17p15----15---------------------------------------|
|--------------------------------|-------16----16p14-16-14-(14)s12-14p12----12-14p12-|
|--------------------------------|---------------------------------------14----------|
|--------------------------------|---------------------------------------------------|
|--------------------------------|---------------------------------------------------|


  Am7
   Q             E.      S  S S  E     E     E
   |             |       |  | |  |     |     |
   /             /       /  / /  /     /     /

   S     +S   E  S  S  E    E    S  S  S  S  E
|----------------------------------------------|
|----------------------------------------------|
|-14b16-(14)-14-12h14p12--------------------12-|
|--------------------------14---------12h14----|
|-------------------------------12h14----------|
|----------------------------------------------|


                                                                         D.S. al Coda
  F
   Q        E.      S  S S  E     E     S S    Q          E.     S   S  S  E  E   S  S
   |        |       |  | |  |     |     | |    |          |      |   |  |  |  |   |  |
   /        /       /  / /  /     /     / /    /          /      /   /  /  /  /   /  /

   E  S  S  S  S  E    E    S  S  S  S  E      a     +E   a     +E   S  S  S  S  +H
|-------------------------------------------|------------------------------------------|
|-------------------------------------------|------------------------------------------|
|-12-------------12---12---------------12---|-14b16-(14)-14b16-(14)-12h14----12-(12)---|
|----------12h14-----------------12h14------|-----------------------------14-----------|
|----12h14-----------------12h14------------|------------------------------------------|
|-------------------------------------------|------------------------------------------|


  &
  Am7                      F
  Q   E.   S  S  S E E E   Q   E.   S  S  S E E S S
  |   |    |  |  | | | |   |   |    |  |  | | | | |
  /   /    /  /  / / / /   /   /    /  /  / / / / /

  E E E  E   +E    E Q     E E E  E   +E    E Q
|--------3---(3)---------|--------3---(3)-----------|
|---1--------------1-----|---1--------------1-------|
|-0---0--------------0---|-0---0--------------0-----|
|------------------------|--------------------------|
|------------------------|--------------------------|
|------------------------|--------------------------|


  Am7                      F
  Q   E.   S  S  S E E E   Q   E.   S  S  S E E S S
  |   |    |  |  | | | |   |   |    |  |  | | | | |
  /   /    /  /  / / / /   /   /    /  /  / / / / /

  E E E  E   +E    E Q     E E E  E   +E    E Q
|--------3---(3)---------|--------3---(3)-------------|
|---1--------------1-----|---1--------------1---------|
|-0---0--------------0---|-0---0--------------0-------|
|------------------------|----------------------------|
|------------------------|----------------------------|
|------------------------|----------------------------|


  Am7                      F
  Q   E.   S  S  S E E E   Q   E.   S  S  S E E S S
  |   |    |  |  | | | |   |   |    |  |  | | | | |
  /   /    /  /  / / / /   /   /    /  /  / / / / /

  E E E  E   +E    E Q     E E E  E   +E    E Q
|--------3---(3)---------|--------3---(3)-----------|
|---1--------------1-----|---1--------------1-------|
|-0---0--------------0---|-0---0--------------0-----|
|------------------------|--------------------------|
|------------------------|--------------------------|
|------------------------|--------------------------|


  Am7                      F
  Q   E.   S  S  S E E E   Q   E.   S  S  S E E S S
  |   |    |  |  | | | |   |   |    |  |  | | | | |
  /   /    /  /  / / / /   /   /    /  /  / / / / /

  E E E  E   +E    E Q     E E E  E   +E    E Q
|--------3---(3)---------|--------3---(3)-------------|
|---1--------------1-----|---1--------------1---------|
|-0---0--------------0---|-0---0--------------0-------|
|------------------------|----------------------------|
|------------------------|----------------------------|
|------------------------|----------------------------|


  Am7                      F
  Q   E.   S  S  S E E E   Q   E.   S  S  S E E S S
  |   |    |  |  | | | |   |   |    |  |  | | | | |
  /   /    /  /  / / / /   /   /    /  /  / / / / /

  E E E  E   +E    E Q     E E E  E   +E    E Q
|--------3---(3)---------|--------3---(3)-----------|
|---1--------------1-----|---1--------------1-------|
|-0---0--------------0---|-0---0--------------0-----|
|------------------------|--------------------------|
|------------------------|--------------------------|
|------------------------|--------------------------|


  Am7                      F
  Q   E.   S  S  S E E E   Q   E.   S  S  S E E S S
  |   |    |  |  | | | |   |   |    |  |  | | | | |
  /   /    /  /  / / / /   /   /    /  /  / / / / /

  E E E  E   +E    E Q     E E E  E   +E    E Q
|--------3---(3)---------|--------3---(3)-------------|
|---1--------------1-----|---1--------------1---------|
|-0---0--------------0---|-0---0--------------0-------|
|------------------------|----------------------------|
|------------------------|----------------------------|
|------------------------|----------------------------|


                                    Outro
  Am7                                F
   Q   E. S      S  S      E  E E    Q  E. S S S E E S S
   |   |  |      |  |      |  | |    |  |  | | | | | | |
   /   /  /      /  /      /  / /    /  /  / / / / / / /

   H             E         E  Q      Q  Q    E   Q   E
|---------------------------------||---------------------|
|----------------5---------5------||---------------------|
|-(0)-------7b9-(7)---7b9-(7)-5---||----5----------------|
|-------------------------------7-||-7-------------------|
|---------------------------------||---------3---2---0---|
|---------------------------------||---------------------|
  +H        a   +E    a   +E  E E


  Am7                            F
   Q   E.    S S S E   E   E     Q           E. S   S S E E S S
   |   |     | | | |   |   |     |           |  |   | | | | | |
   /   /     / / / /   /   /     /           /  /   / / / / / /

  +Q   S S S S S S S S S S S S   a     +E  Q.     a E   Q   E
|------------------5-----------|--------------------------------|
|------------------5-----------|--------------------------------|
|------------5---5---5---------|-5b5.5-(5)----------------------|
|------5h7-5-----------5h7-5h7-|-----------7s=====0-------------|
|-(0)--------------------------|--------------------3---2---0---|
|------------------------------|--------------------------------|


  Am7                                         F
   Q          E.    S      S  S E   E   E      Q    E. S   S S E E S S
   |          |     |      |  | |   |   |      |    |  |   | | | | | |
   /          /     /      /  / /   /   /      /    /  /   / / / / / /

   E       E  H.                              +E  Q.     a E   Q   E
|-------------------------------------------|--------------------------|
|----------5--------------------------------|--------------------------|
|-----7b9-(7)-7p5-7p5-7b9-(7)---7-5-7-5-7-5-|-(5)----------------------|
|-------------------------------------------|-----7s=====0-------------|
|-(0)---------------------------------------|--------------3---2---0---|
|-------------------------------------------|--------------------------|
  +E  a   +E  S S S S a   +E    S S S S S S


  Am7
   Q          E.    S      S  S E   E   E
   |          |     |      |  | |   |   |
   /          /     /      /  / /   /   /

   E       E  H.
|---------------------------------------------|
|----------5----------------------------------|
|-----7b9-(7)-7p5-7p5-7b9-(7)---7-5-7-5-7-5---|
|---------------------------------------------|
|-(0)-----------------------------------------|
|---------------------------------------------|
  +E  a   +E  S S S S a   +E    S S S S S S


  F                          Am7
   Q    E. S   S S E E S S    Q   E.   S S S E E   E
   |    |  |   | | | | | |    |   |    | | | | |   |
   /    /  /   / / / / / /    /   /    / / / / /   /

  +E  Q.     a E   Q   E     +Q   E  S S S S E S S E
|--------------------------|-----------0-------------|
|--------------------------|------0--0---------------|
|-(5)----------------------|------5------------------|
|-----7s=====0-------------|-------------5h7-7-5h7-7-|
|--------------3---2---0---|-(0)---------------------|
|--------------------------|-------------------------|


  F
  Q   E.   S  S  S E E   S S
  |   |    |  |  | | |   | |
  /   /    /  /  / / /   / /

  E E E  S S +S  S E S S S S
|----------0-(0)-------------|
|---5-5--5-0-(0)-------------|
|---5-5--5-0-(0)-------------|
|----------------7-7-5h7-5h7-|
|----------------------------|
|----------------------------|


  Am7                          F
  Q   E.   S  S  S E E   E     Q   E.   S  S  S E E   S S
  |   |    |  |  | | |   |     |   |    |  |  | | |   | |
  /   /    /  /  / / /   /     /   /    /  /  / / /   / /

  E E E  S S +S  S E S S S S   E E E  S S +S  S E S S S S
|----------0-(0)-------------|----------0-(0)--------------|
|---5-5--5-0-(0)-------------|---5-5--5-0-(0)--------------|
|---5-5--5-0-(0)-------------|---5-5--5-0-(0)--------------|
|----------------7-7-5h7-5h7-|----------------7-7-5h7-5h7--|
|----------------------------|-----------------------------|
|----------------------------|-----------------------------|


  Am7
  Q       E.   S S S E E   E
  |       |    | | | | |   |
  /       /    / / / / /   /

  S S S S E  S S S S E S S S S
|------------------------------|
|--------------5---5-----------|
|---------5--5-----------------|
|-----5h7------------7-5h7-5h7-|
|-5h7--------------------------|
|------------------------------|


  F                              Am7
   Q    E.   S  S  S E E   S S   Q     E.   S  S  S E E   E
   |    |    |  |  | | |   | |   |     |    |  |  | | |   |
   /    /    /  /  / / /   / /   /     /    /  /  / / /   /

  +E  E E  S S +S  S E S S S S   E a E E  S S +S  S E S S S S
|------------0-(0)-------------|------------0-(0)-------------|
|-----5-5--5-0-(0)-------------|-----5-5--5-0-(0)-------------|
|-----5-5--5-0-(0)-------------|-----5-5--5-0-(0)-------------|
|-(7)--------------7-7-5h7-5h7-|-7s2--------------7-7-5h7-5h7-|
|------------------------------|------------------------------|
|------------------------------|------------------------------|


  F                            Am7
  Q   E.   S  S  S E E   S S   W          +W                  +W
  |   |    |  |  | | |   | |   |           |                   |
  /   /    /  /  / / /   / /   /           /                   /

  E E E  S S +S  S E S S S S   W           H.            Q    +W
|----------0-(0)-------------|-0--------|--0-------------0--|-(0)----*|
|---5-5--5-0-(0)-------------|-1--------|-----0----------0--|-(0)----*|
|---5-5--5-0-(0)-------------|-0--------|-------5--------5--|-(5)----*|
|-7--------------7-7-5h7-5h7-|-2--------|---------7-(7)--7--|-(7)----*|
|----------------------------|-0--------|----------------0--|-(0)----*|
|----------------------------|----------|-------------------|--------*|
                                           E  E E E +Q   Q


Duration Legend
---------------
W - whole; H - half; Q - quarter; E - 8th; S - 16th; T - 32nd; X - 64th; a - acciaccatura
+ - note tied to previous; . - note dotted; .. - note double dotted
Uncapitalized letters represent notes that are staccato (1/2 duration)
Irregular groupings are notated above the duration line
Duration letters will always appear directly above the note/fret number it represents the
duration for.  Duration letters with no fret number below them represent rests.  Multi-
bar rests are notated in the form Wxn, where n is the number of bars to rest for.  Low
melody durations appear below the staff

Tablature Legend
----------------
 h   - hammer-on
 p   - pull-off
 b   - bend
 pb  - pre-bend
 r   - bend release (if no number after the r, then release immediately)
 /\  - slide into or out of (from/to "nowhere")
 s   - legato slide
 S   - shift slide
  - natural harmonic
[n]  - artificial harmonic
n(n) - tapped harmonic
 ~   - vibrato
 tr  - trill
 T   - tap
 TP  - trem. picking
 PM  - palm muting
\n/  - tremolo bar dip; n = amount to dip
 \n  - tremolo bar down
 n/  - tremolo bar up
/n\  - tremolo bar inverted dip
 =   - hold bend; also acts as connecting device for hammers/pulls
 <>  - volume swell (louder/softer)
 x   - on rhythm slash represents muted slash
 o   - on rhythm slash represents single note slash

Misc Legend
-----------
 |  - bar
||  - double bar
||o - repeat start
o|| - repeat end
*|  - double bar (ending)
 :  - bar (freetime)
 $  - Segno
 &  - Coda
Tempo markers -  = BPM(8/16=s8/s16), where s8 = swing 8ths, s16 = swing 16ths
Related for Live Forever tab