Song name
# A B C D E F G H I J K L M N O P Q R S T U V W X Y Z

Oasis - Little By Little tab

h = hammer on
s = slide
r = release


E------------------------------------------------------------------------|
B------------------------------------------------------------------------|
G------------6-7b9r7-6---------------------------------------------------|
D--5h7--7--7-----------7-7-5h7-7-----7-5---5-4---------------------------|
A-------------------------------------7-5---5-5--------------------------|
E------------------------------------------------------------------------|

E-----------------------------------------------------------------------|
B-----------------------------------------------------------------------|
G------------6-7b9r7-6--------------------------------------------------|
D--5h7--7--7-----------7-7-5h7-7-----7-5---5-4--------------------------|
A-------------------------------------7-5---5-5-------------------------|
E-----------------------------------------------------------------------|

E-----------------------------------------------------------------------|
B-----------------------------------------------------------------------|
G--------------------------------------11---11h12s14--------------------|
D--10h12--12--10h12--12--10h12--12-----12-------------------------------|
A-----------------------------------------------------------------------|
E-----------------------------------------------------------------------|

E-----------------------------------------------------------------------|
B-----------------------------------------------------------------------|
G---------------------------12s14 14-14-14-14-14-14-14b16(hold)r14------|
D--10h12--12--10h12--12-------------------------------------------------|
A-----------------------------------------------------------------------|
E-----------------------------------------------------------------------|
Tap to rate this tab
# A B C D E F G H I J K L M N O P Q R S T U V W X Y Z