Song name
# A B C D E F G H I J K L M N O P Q R S T U V W X Y Z

Oasis - Supersonic Live tab

-------------------------------------------------------------------------------
			     Supersonic - Oasis
-------------------------------------------------------------------------------
Tabbed by:Pat_Pat
This is how I play the Supersonic solo- based on the version on Familiar To Millions.
done by ear so be gentle please!! Not meant to be exact, but it doesn't sound to bad. Rate
comment please! I try to put a vibrato effect on as many of the notes as I can just 
I think it sounds cool, but you can experiment with it!!

Tuning:Standard
Solo 1:

e|----------------------------------------------------------15--------------|
B|-15b17r15--13--15--13------------13---------15b17r15--13------17--15------|
G|----------------------14--12--14----14--12~----------------------------17-|
D|--------------------------------------------------------------------------|
A|--------------------------------------------------------------------------|
E|--------------------------------------------------------------------------|

e|--------------------------------------------------------------------------|
B|--------------------------------------------------------------------------|
G|--------15h17p15----15~---------------------------------------------------|
D|-15h17-----------17-------------------------------------------------------|
A|--------------------------------------------------------------------------|
E|--------------------------------------------------------------------------|

e|----------------------------------------------------------15--------------|
B|-15b17r15--13--15--13------------13---------15b17r15--13------17--15------|
G|----------------------14--12--14----14--12~---------------------------17--|
D|--------------------------------------------------------------------------|
A|--------------------------------------------------------------------------|
E|--------------------------------------------------------------------------|

e|---------------------------------------------------13---------------------|
B|----------------------------13h15---13-------15--------15p13--------------|
G|--------15h17p15----15~------------------15------------------15s6----------|
D|-15h17-----------17--------------------------------------------------------|
A|---------------------------------------------------------------------------|
E|---------------------------------------------------------------------------|

Solo 2:
e|----------------------------------------------------------15--------------|
B|-15b17r15--13--15--13------------13---------15b17r15--13------17--15------|
G|----------------------14--12--14----14--12~----------------------------17-|
D|--------------------------------------------------------------------------|
A|--------------------------------------------------------------------------|
E|--------------------------------------------------------------------------|

e|--------------------------------------------------------------------------|
B|--------------------------------------------------------------------------|
G|--------15h17p15----15~---------------------------------------------------|
D|-15h17-----------17-------------------------------------------------------|
A|--------------------------------------------------------------------------|
E|--------------------------------------------------------------------------|

e|--------------------------------------------------------------------------|
B|-15b17r15--13--15--13------------13-------------13------------13----------|
G|----------------------14--12--14-----14--12--14----14--12--14-------------|
D|--------------------------------------------------------------------------|
A|--------------------------------------------------------------------------|
E|--------------------------------------------------------------------------|

e|--------------------------------------------------------------------------|
B|-14b--14b--14b--14br------------------------------------------------------|
G|--------------------------------------------------------------------------|
D|----------------------------------2~--2--------------2~--2--2h4-----------|
A|-------------------------0--0h4--------4--2~--2--2h4------------0--0--0h4-|
E|--------------------------------------------------------------------------|


e|--------------------------------------------------------------------------|
B|-------------2------------------------------------------------------------|
G|-------2--4----4--2--4--2-------------------------------------------------|
D|--2--4--------------------4~----------2--2--------------2--2--2h4---------|
A|------------------------------0--0h4-------4--2--2--2h4------------0------|
E|--------------------------------------------------------------------------|

e|--------------------------------------------------------------------------|
B|--------------------------------2~----------------------------------------|
G|-------------------2--4--4--4---------------------------------------------|
D|----------2--2--4---------------------------------------------------------|
A|--0--0h4------------------------------------------------------------------|
E|--------------------------------------------------------------------------|

e|--------------------------------------------------------------------------|
B|-12b14--12b14--12b14--12b14--12b14--12b14--12b14--12b14--12b14--12b14-----|
G|--------------------------------------------------------------------------|
D|--------------------------------------------------------------------------|
A|--------------------------------------------------------------------------|
E|--------------------------------------------------------------------------|

e|-------------------------------------------12--14--12---------------------|
B|--12b14--12b14--12b14--12b14--12b14r12--12------------14--12--14--12------|
G|-------------------------------------------------------------------14~----|
D|--------------------------------------------------------------------------|
A|--------------------------------------------------------------------------|
E|--------------------------------------------------------------------------|

e|--------------------------------------------------------------------------|
B|-12b14--12b14--12b14--12b14r12--12--12--12b14--12b14--12b14--12b14--------|
G|--------------------------------------------------------------------------|
D|--------------------------------------------------------------------------|
A|--------------------------------------------------------------------------|
E|--------------------------------------------------------------------------|

e|-----------------------------------------------------------12--14--12-----
B|---12b14r12---12--12--12b14--12b14--12b14--12b14r12--12---------------14--|
G|--------------------------------------------------------------------------|
D|--------------------------------------------------------------------------|
A|--------------------------------------------------------------------------|
E|--------------------------------------------------------------------------|

e|------------------14--12-----------------------14--12---------------------|
B|-12--14--12----12--------14--12--14--12-----12---------14--12--14--12--12-|
G|------------14--------------------------14---------------------------14---|
D|--------------------------------------------------------------------------|
A|--------------------------------------------------------------------------|
E|--------------------------------------------------------------------------|

e|-14--12-----12---14---12------12--14--12--------------12------------------|
B|---------14---------------14--------------14--12--14------14--12--14~-----|
G|--------------------------------------------------------------------------|
D|--------------------------------------------------------------------------|
A|--------------------------------------------------------------------------|
E|--------------------------------------------------------------------------|
************************************

| s   Slide
| h   hammer-on
| p   pull-off
| ~   vibrato
| b   Bend
| r   Release

************************************
Tap to rate this tab
 
# A B C D E F G H I J K L M N O P Q R S T U V W X Y Z