Guitaretab - guitar tabs
Song name
# A B C D E F G H I J K L M N O P Q R S T U V W X Y Z

Oasis - Stop Crying Your Heart Out tab

STOP CRYING YOUR HEART OUT (LIVE)

Written by Noel Gallagher
Track #4 of Heathen Chemistry also released as a single

CD:UK Live version of the song

Tabbed by Ignacio Diaz (ignaciodiaz@oa515.com)

Standard tuning

Chords:

Bmadd11	         x99700
Asus2		x02200
E		022100
G		320033
D		xx0232
Asus4		x02230
Em7		022030

Intro:
======

e--0-----
B-----0--
G--------
D--------

1st verse
=========

Hold up...
	  e---------0-----
	  B------------0--
 	  G----7----------
 	  D---------------
 
Hold on...
	  e----------0-----
	  B-------------0--
 	  G----7-----------
 	  D-------9--------
 
Don't be scared...
	  	e----------0-----
	  	B-------------0--
 	  	G-------7--------
 	  	D----9-----------

You'll never change what's been and gone
	  				e----------0-----
					B-------------0--
 	  				G-------7--------
 	  				D----9-----------

Chorus
======
                 D              Asus4
Cos all of the stars are fading away
                 Em7                    G
Just try not to worry you'll see them someday
               D                 Asus4
Take what you need and be on your way
                       G
And stop crying your heart out


2nd verse
=========
    Bmadd11
Get up (get up)
     Asus2
Come on (come on)
             E
Why're you scared? (I'm not scared)
                            G
You'll never change what's been and gone

Chorus
======
Cos all of the stars are fading away
Just try not to worry you'll see them someday
Take what you need and be on your way
And stop crying your heart out

Solo
====
[Just repeat this]

e--------0-----
B-----7-----7--
G--7-----------

Chorus
======
Cos all of the stars are fading away
Just try not to worry you'll see them someday
Take what you need and be on your way
                      Em7        G
And stop crying your heart out
		  Em7        G
Stop crying your heart out
		  Em7        G
Stop crying your heart out
		  Em7        G
Stop crying your heart out

[Solo again, ends on G]

Outro
=====
   D                 Asus4             Em7               G
e-----2-----0-----------------0-----------------0-----------------0--------
B--------3-----3-----------3-----3-----------------3-----------------3-----
G-----------------0-----------------2-----------------0-----------------0--
D--0--------------------2--------------------2-----------------0-----------
A--------------------0--------------------2-----------------2--------------
E--------------------------------------0-----------------3-----------------

Dsus4 D Dsus2 D        Asus4             Em7               G                      D
e--3--2---0---2-----------------0-----------------0-------------------3-----------2--
B--3--3---3---3--3-----------3-----3-----------------3-------------------3--------3--
G-------------------2-----------------2-----------------0-------------------0-----2--
D-------------------------2--------------------2-----------------0-------------0--0--
A----------------------0--------------------2-----------------2-----2----------------
E----------------------------------------0-----------------3-------------------------


[ Tab from: http://www.guitaretab.com/o/oasis/24661.html ]
Related for Stop Crying Your Heart Out tab