Oasis - Dont Look Back In Anger Live tab

Hi, this is the solo tab for Dont Look Back In Anger the live version played by Gem 
i worked this out by finding out the note scale and then experimenting by playing different 
along with the song. Hope this tab is helpful !

>>>>>CAPO 2ND FRET<<<<<


--------------------------------------------------------|
---14br---14br---14br---12------------------------------|
-----------------------------11---11b< hold this bend---|
--------------------------------------------------------|
--------------------------------------------------------|
--------------------------------------------------------|

----------------------------------------------------------------------------|
---14br---14br---14br---12--------------------------------------------------|
-----------------------------11---11h13p11-------------11-------------------|
---------------------------------------------11---13--------11/9---9--------|
-----------------------------------------------------------------------11---|
----------------------------------------------------------------------------|


--------------------------------------------------------------------|
---14br---14br---14br---12------------------------------------------|
-----------------------------11---11b---11br------------------------|
-----------------------------------------------11
                        
                    
Tap to rate this tab
 
# A B C D E F G H I J K L M N O P Q R S T U V W X Y Z