Song name
# A B C D E F G H I J K L M N O P Q R S T U V W X Y Z

Oasis - Importance Of Being Idle tab

Standard tuning (E,A,D,G,B,E)

Chords : 
Am  F   C   B   E   Dm  G   E7sus4
------------------------------------
0   1   0   0   0   1   3   0
1   1   1   0   0   3   0   0
2   2   0   2   1   2   0   2
2   3   2   1   2   0   0   0
0   3   3   2   2   0   1   2
0   1   0   0   0   0   2   0

Intro

Am, E (x3) Am, E, Am 
Am (x4 each one lasting 4 beats)    It's easy to pick up the rhythm when you listen to the song

Verse

Am                     F
I sold my soul for the second time
        C              B  E
Cos the man, he don't pay me
Am                       F
I begged my landlord for some more time
        C                  B  E
He said son, the bills are waiting
Am                           F
My best friend called me the other night
        C            B  E
He said man, are you crazy
Am                       F
My girlfriend told me to get a life 
         C        B E
She said boy, you lazy 


Pre Chorus

Dm              Am
    But I don't mind
   Dm                                Am
As long as there's a bed beneath the stars that shine
Dm          Am
    I'll be fine 


Chorus

       F
If you give me a minute

A man's got a limit
G                        E                 E E E E, E7sus4
I can't get a life if my hearts not in it


Solo

-0------|8-7------|3-5-3--0-|0-0-0----|
3-3-1---|---10-8--|------3-3|-5-5-----|
-----2--|-------9-|---------|---------|
--------|---------|---------|---------|
--------|---------|---------|---------|
--------|---------|---------|---------|

-0------|8-7------|3-5-3--0-|0-0-0----|
3-3-1---|---10-8--|------3-3|-5-5-----|
-----2--|-------9-|---------|---------|
--------|---------|---------|---------|
--------|---------|---------|---------|
--------|---------|---------|---------|

-----------------|-----------------|---15------------|-----------------|
15b-15b-15-13--13|15b-15b-15-13--13|15b--15b-13--13--|12s5-------------|
-------------14--|-------------14--|-----------14----|-----------------|
-----------------|-----------------|-----------------|-----------------|
-----------------|-----------------|-----------------|-----------------|
-----------------|-----------------|-----------------|-----------------|

-----------------|---15------------|-----------------|-----------------|
15b-15b-15-13--13|15b--15b-13--13--|15b------12------|5555555----------|
-------------14--|-----------14----|-----------------|-----------------|
-----------------|-----------------|-----------------|-----------------|
-----------------|-----------------|-----------------|-----------------|
-----------------|-----------------|-----------------|-----------------|


Pre Chorus

Dm              Am
    But I don't mind
   Dm                                Am
As long as there's a bed beneath the stars that shine
Dm          Am
    I'll be fine


Chorus

       F
If you give me a minute

A man's got a limit
G                        E                 E E E E, E7sus4
I can't get a life if my hearts not in it


Intro

Am, E (x3) 
Am, E, Am


Verse

Am                     F
I lost my faith in the summer time
         C          B  E
Cause it don't stop raining
Am                    F
The sky all day is as black as night
        C      B   E     
But I'm not complaining
Am                     F
I begged my doctor for one more line
        C          B    E
He says Son, words fail me
Am                      F
It ain't no place to be killing time
        C        B E
I guess I'm just lazy


Pre Chorus

Dm              Am
    But I don't mind
   Dm                                Am
As long as there's a bed beneath the stars that shine
Dm          Am
    I'll be fine


Chorus

       F
If you give me a minute

A man's got a limit
G                        E                 E E E E, E7sus4
I can't get a life if my hearts not in it


Outro (same way as intro)

Am, E (x3)
Am, E, Am
Tap to rate this tab
 
# A B C D E F G H I J K L M N O P Q R S T U V W X Y Z