Song name
# A B C D E F G H I J K L M N O P Q R S T U V W X Y Z

Oasis - Lyla chords

Highlighted       Show chord diagrams
OASIS - LYLA

Capo on 2nd fret 

INTRO:
A (down,down) E (up,up)
-------------------------------------------------
E (strike down x5)  ->    A (down,down) E (up,up) ]repeat x4 
-------------------------------------------------

VERSE

A
Callin' all the stars to fall
    C                D                E
And catch the silver sunlight in your hands
A
Comfort me and set me free
C              D               E
Lift me up and take me where I stand
A
She believes in everything
    C            D                 E
And everyone and you and yours and mine
  C
I waited for a thousand years
    D                              E
For you to come and blow me out my mind

CHORUS

E   A-E
Hey Lyla!
    D              A
The stars about to fall
           E    A-E 
So whatcha say, Lyla?
    D               A                E      A-E
The world around us makes me feel so small, Lyla!
   D               A                E    A-E
If you can hear me call, then I can say, Lyla!
D               A             B (one stroke)
Heaven help you catch me if I fall?

repeat INTRO twice

She's the queen of all I've seen
And every song and city far and near
Heaven hell my mamazelle
She ringed the bell for all the world to hear

Hey Lyla!
The stars about to fall
So whatcha say, Lyla?
The world around us makes me feel so small, Lyla!
If you can hear me call, then I can say, Lyla!
Heaven help you catch me if I fall?

---GUITAR SOLO----------------------------------

Guitar 1
e|0-0-0-0-0-0-2-3-3-3-3-3--0-0-0-0-0-0-0-3-3-3-3-3--0-0-0-0-0-0-0-0-0-0-0-0|
B|2-2-2-2-2-2-2-3-3-3-3-3--2-2-2-2-2-2-2-3-3-3-3-3--2-2-2-2-2-2-2-2-2-2-2-2|
G|2-2-2-2-2-2-2-0-0-0-0-0--2-2-2-2-2-2-2-0-0-0-0-0--2-2-2-2-2-2-2-2-2-2-2-2|
D|2-2-2-2-2-2-2-0-0-0-0-0--2-2-2-2-2-2-2-0-0-0-0-0--2-2-2-2-2-2-2-2-2-2-2-2|
A|0-0-0-0-0-0-0-2-2-2-2-2--0-0-0-0-0-0-0-2-2-2-2-2--0-0-0-0-0-0-0-0-0-0-0-0|
E|--------------3-3-3-3-3----------------3-3-3-3-3-------------------------|

Guitar 2
e|----------------------------------------------------------17---17--17--17|
B|--------------17b--17~~-----------------------17b-17b--17b---17b-17b-17b-|
G|--------------------------------2b--2~~----------------------------------|
D|2-13s0-------------------13s0----------13s0------------------------------|
A|2-------11s0-------------------------------------------------------------|
E|0------------------------------------------------------------------------|

----------------------------------------------------------------------------

Hey Lyla!
The stars about to fall
So whatcha say, Lyla?
The world around us makes me feel so small, Lyla!
If you can hear me call, then I can say, Lyla!
Heaven help you catch me if I fall, Lyla!
Hey Lyla!
Hey Lyla!
Hey Lyla!

Keeps playing the chorus
and fades out...
Tap to rate this tab
 
# A B C D E F G H I J K L M N O P Q R S T U V W X Y Z