Oasis - Stop Crying Your Heart Out tab

Artist: Oasis
Title: Stop Crying Your Heart Out
Tabbed by: Dingle

I couldn't find a tab that accurately covered the outro for this song.  It is done with 
one guitar playing harmonics and the other picking at chords.

Guitar 1 (all harmonics)
------12-------12------12--------12-------|
----7--------7-------7----12---7----------|
--7--------7-------7---------7------------|
------------------------------------------|
------------------------------------------|
------------------------------------------|

------12-------12------12--------12-------|
----7--------7-------7----12---7----12----|
--7--------7-------7---------7----------7-|
------------------------------------------|
------------------------------------------|
------------------------------------------|


Guitar 2 (seems to just be picking at these chords)

D  Asus  Em7  G x2
End on D
Tap to rate this tab
 
# A B C D E F G H I J K L M N O P Q R S T U V W X Y Z