Song name
# A B C D E F G H I J K L M N O P Q R S T U V W X Y Z

Oasis - Cigarettes And Alcohol tab

                             CIGARETTES AND ALCOHOL
                              As recorded by Oasis
                     (From the 1994 Album DEFINITELY MAYBE )

Words and Music by Noel Gallagher

Gtr I (E A D G B E) - 'Lead'
Gtr II (E A D G B E) - 'Rhythm'

 Intro
  Q=112
 4/4
  Gtr I
  E E E E E E E E   E E E E E E E E   +E  E E E E E E E   E E E E E E E E
|-----------------|-----------------|-------------------|-----------------|
|-----------------|-----------------|-------------------|-----------------|
|-----------------|-----------------|-------------------|-----------------|
|---------------2-|---2-------------|-----------------2-|---2-------------|
|-2---4---2---4-2-|---2-4-2-2-----2-|-(2)---4-2-2-2-4-2-|---2-4-2-2-----2-|
|-0-0-0-0-0-0-0---|-0---0-0-0-3-2-0-|-(0)-0-0-0-0-0-0---|-0---0-0-0-3-2-0-|


                                        F#5
  +E  +E  E E E E E E   +E  E E E E E E E
|---------------------|-------------------|
|---------------------|-------------------|
|---------------------|-------------------|
|-------------------2-|-(2)-2-----------4-|
|-(2)-(2)-4-2-2-2-4-2-|-(2)-2-4-2-2-2-2-4-|
|-(0)-(0)-0-0-0-0-0---|-------0-0-0-0-0-2-|
|
| Gtr II
|  W                     W
|---------------------|-------------------|
|---------------------|-------------------|
|---------------------|-------------------|
|---------------------|-------------------|
|---------------------|-------------------|
|---------------------|-------------------|


     F#           A5                  E
  Q  Q  E E E E    E  E  E  E  E  E E E
|---------------|--0--0--0--0--0--0------|
|---------------|-12-12-12-12-10-10---9--|
|----3--3-3-3---|-13-13-13-13--9-11---9--|
|-4--4--4-4-4---|---------------------9--|
|-4--4--4-4-4-0-|------------------------|
|-2--2--2-2-2-0-|------------------------|
|
| W                E  E  E  E  E  E E E
|---------------|---------------------0--|
|---------------|---------------------0--|
|---------------|--2--2--2--2--2--2---1--|
|---------------|--2--2--2--2--2--2---2--|
|---------------|--0--0--0--0--0--0---2--|
|---------------|---------------------0--|


  +Q.     E  Q.   E     E E E E  E  E E E
|---------------------|-------------------|
|-(9)--------9--------|-9-9---9-----------|
|-(9)--------9--------|-9-9---9-----------|
|-(9)--------9--------|-9-9---9-----------|
|---------------------|-------------------|
|---------0-------0---|-----0-------3-2-0-|
|
|  E  E E E +E  E E E   E E E E +E  E E E
|--0--0-0-0-(0)-0-0-0-|-0-0-0-0-(0)-0-0-0-|
|--0--0-0-0-(0)-0-0-0-|-0-0-0-0-(0)-0-0-0-|
|--1--1-1-1-(1)-1-1-1-|-1-1-1-1-(1)-1-1-1-|
|--2--2-2-2-(2)-2-2-2-|-2-2-2-2-(2)-2-2-2-|
|--2--2-2-2-(2)-2-2-2-|-2-2-2-2-(2)-2-2-2-|
|--0--0-0-0-(0)-0-0-0-|-0-0-0-0-(0)-0-0-0-|


  +E  E E E  Q.     E    E E  E E +Q    E S S
|---------------------|-----------------------|
|-----9------9------9-|-10-9-10-9-(9)---------|
|-----9------9------9-|--9-9--9-9-(9)---------|
|-----9------9------9-|-11-9-11-9-(9)---------|
|---------------------|-------------------2-2-|
|-(0)-----0-----------|-------------------0-0-|
|
|  E  E E E +E  E E E    E E  E E +E  E E E
|--0--0-0-0-(0)-0-0-0-|--0-0--0-0-(0)-0-0-0---|
|--0--0-0-0-(0)-0-0-0-|--0-0--0-0-(0)-0-0-0---|
|--1--1-1-1-(1)-1-1-1-|--1-1--1-1-(1)-1-1-1---|
|--2--2-2-2-(2)-2-2-2-|--2-2--2-2-(2)-2-2-2---|
|--2--2-2-2-(2)-2-2-2-|--2-2--2-2-(2)-2-2-2---|
|--0--0-0-0-(0)-0-0-0-|--0-0--0-0-(0)-0-0-0---|


 Verse 1
  E5
  E E Q    E  E Q     E E E E +E  E Q
|-------------------|------------------|
|-------------------|------------------|
|-------------------|------------------|
|-------------------|------------------|
|-2-2-4----2--2-4---|-2-2-4-2-(2)-2-2--|
|-0-0-0----0--0-0---|-0-0-0-0-(0)-0-0--|
|
| E E E E +E  E E E   E E E E +E  E Q
|-------------------|------------------|
|-------------------|------------------|
|-------------------|------------------|
|-2-2-2-2-(2)-2-2-2-|-2-2-2-2-(2)-2-2--|
|-2-2-2-2-(2)-2-2-2-|-2-2-2-2-(2)-2-2--|
|-0-0-0-0-(0)-0-0-0-|-0-0-0-0-(0)-0-0--|


  F#11           A5                       E
  Q  E E +E  E E E    E  E  E  E  E   E E E
|----0-0-(0)-0-0---|--0--0--0--0--0---0------|
|----0-0-(0)-0-0---|-12-12-12-12-10--10---9--|
|-3--3-3-(3)-3-3---|-13-13-13-13--9--11---9--|
|-4--4-4-(4)-4-4---|----------------------9--|
|-4--4-4-(4)-4-4-0-|-------------------------|
|-2--2-2-(2)-2-2-0-|-------------------------|
|
| Q  E E +E  E E E    E  E  E  E +E   E E E
|-0--0-0-(0)-0-0---|----------------------0--|
|-0--0-0-(0)-0-0---|----------------------0--|
|-3--3-3-(3)-3-3-2-|--2--2--2--2-(2)--2-2-1--|
|-4--4-4-(4)-4-4-2-|--2--2--2--2-(2)--2-2-2--|
|-4--4-4-(4)-4-4-0-|--0--0--0--0-(0)--0-0-2--|
|-2--2-2-(2)-2-2---|----------------------0--|


  +Q.   E Q.       E     E E E E  E  E E E
|----------------------|-------------------|
|-(9)-----9------------|-9-9---9-----------|
|-(9)-----9------------|-9-9---9-----------|
|-(9)-----9------------|-9-9---9-----------|
|----------------------|-------------------|
|-------0----------0---|-----0-------3-2-0-|
|
|  E  E E E  +E  E E E   E E E E +E  E E E
|--0--0-0-0--(0)-0-0-0-|-0-0-0-0-(0)-0-0-0-|
|--0--0-0-0--(0)-0-0-0-|-0-0-0-0-(0)-0-0-0-|
|--1--1-1-1--(1)-1-1-1-|-1-1-1-1-(1)-1-1-1-|
|--2--2-2-2--(2)-2-2-2-|-2-2-2-2-(2)-2-2-2-|
|--2--2-2-2--(2)-2-2-2-|-2-2-2-2-(2)-2-2-2-|
|--0--0-0-0--(0)-0-0-0-|-0-0-0-0-(0)-0-0-0-|


  +E  E E E  Q.     E    E E  E E +Q    E S S
|---------------------|-----------------------|
|-----9------9------9-|-10-9-10-9-(9)---------|
|-----9------9------9-|--9-9--9-9-(9)---------|
|-----9------9------9-|-11-9-11-9-(9)---------|
|---------------------|-------------------2-2-|
|-(0)-----0-----------|-------------------0-0-|
|
|  E  E E E +E  E E E    E E  E E +E  E E E
|--0--0-0-0-(0)-0-0-0-|--0-0--0-0-(0)-0-0-0---|
|--0--0-0-0-(0)-0-0-0-|--0-0--0-0-(0)-0-0-0---|
|--1--1-1-1-(1)-1-1-1-|--1-1--1-1-(1)-1-1-1---|
|--2--2-2-2-(2)-2-2-2-|--2-2--2-2-(2)-2-2-2---|
|--2--2-2-2-(2)-2-2-2-|--2-2--2-2-(2)-2-2-2---|
|--0--0-0-0-(0)-0-0-0-|--0-0--0-0-(0)-0-0-0---|


 Verse 2
  E5
  E E Q    E  E Q     E E E E +E  E Q
|-------------------|------------------|
|-------------------|------------------|
|-------------------|------------------|
|-------------------|------------------|
|-2-2-4----2--2-4---|-2-2-4-2-(2)-2-2--|
|-0-0-0----0--0-0---|-0-0-0-0-(0)-0-0--|
|
| E E E E +E  E E E   E E E E +E  E Q
|-------------------|------------------|
|-------------------|------------------|
|-------------------|------------------|
|-2-2-2-2-(2)-2-2-2-|-2-2-2-2-(2)-2-2--|
|-2-2-2-2-(2)-2-2-2-|-2-2-2-2-(2)-2-2--|
|-0-0-0-0-(0)-0-0-0-|-0-0-0-0-(0)-0-0--|


  F#11           A5                       E
  Q  E E +E  E E E    E  E  E  E  E   E E E
|----0-0-(0)-0-0---|--0--0--0--0--0---0------|
|----0-0-(0)-0-0---|-12-12-12-12-10--10---9--|
|-3--3-3-(3)-3-3---|-13-13-13-13--9--11---9--|
|-4--4-4-(4)-4-4---|----------------------9--|
|-4--4-4-(4)-4-4-0-|-------------------------|
|-2--2-2-(2)-2-2-0-|-------------------------|
|
| Q  E E +E  E E E    E  E  E  E +E   E E E
|-0--0-0-(0)-0-0---|----------------------0--|
|-0--0-0-(0)-0-0---|----------------------0--|
|-3--3-3-(3)-3-3-2-|--2--2--2--2-(2)--2-2-1--|
|-4--4-4-(4)-4-4-2-|--2--2--2--2-(2)--2-2-2--|
|-4--4-4-(4)-4-4-0-|--0--0--0--0-(0)--0-0-2--|
|-2--2-2-(2)-2-2---|----------------------0--|


  +Q.     E  Q.     E   E E E E  E  E E E
|---------------------|-------------------|
|-(9)--------9--------|-9-9---9-----------|
|-(9)--------9--------|-9-9---9-----------|
|-(9)--------9--------|-9-9---9-----------|
|---------------------|-------------------|
|---------0---------0-|-----0-------3-2-0-|
|
|  E  E E E +E  E E E   E E E E +E  E E E
|--0--0-0-0-(0)-0-0-0-|-0-0-0-0-(0)-0-0-0-|
|--0--0-0-0-(0)-0-0-0-|-0-0-0-0-(0)-0-0-0-|
|--1--1-1-1-(1)-1-1-1-|-1-1-1-1-(1)-1-1-1-|
|--2--2-2-2-(2)-2-2-2-|-2-2-2-2-(2)-2-2-2-|
|--2--2-2-2-(2)-2-2-2-|-2-2-2-2-(2)-2-2-2-|
|--0--0-0-0-(0)-0-0-0-|-0-0-0-0-(0)-0-0-0-|


  +E  E E E  Q.     E    E E  E E +Q    E S S
|---------------------|-----------------------|
|-----9------9------9-|-10-9-10-9-(9)---------|
|-----9------9------9-|--9-9--9-9-(9)-----2-2-|
|-----9------9------9-|-11-9-11-9-(9)-----2-2-|
|---------------------|-------------------0-0-|
|-(0)-----0-----------|-----------------------|
|
|  E  E E E +E  E E E    E E  E E +E  E E E
|--0--0-0-0-(0)-0-0-0-|--0-0--0-0-(0)-0-0-0---|
|--0--0-0-0-(0)-0-0-0-|--0-0--0-0-(0)-0-0-0---|
|--1--1-1-1-(1)-1-1-1-|--1-1--1-1-(1)-1-1-1---|
|--2--2-2-2-(2)-2-2-2-|--2-2--2-2-(2)-2-2-2---|
|--2--2-2-2-(2)-2-2-2-|--2-2--2-2-(2)-2-2-2---|
|--0--0-0-0-(0)-0-0-0-|--0-0--0-0-(0)-0-0-0---|


 Pre Chorus
  A5            E5                  A5
  E E E E E E E E   +E  E E E E E a E E
|-----------------|---------------------|
|-----------------|---------------------|
|-2-2-------------|-------------------2-|
|-2-2-----------2-|-(2)-------2-------2-|
|-0-0-3h4-0-3h4-0-|-(0)---------------0-|
|---------------0-|-(0)-0-3-4---0-3-4---|
|
| E E E E E E E E   +E  E E E E E E E
|-----------------|---------------------|
|-----------------|---------------------|
|-2-2-2-2-2-2-2---|-----------------2---|
|-2-2-2-2-2-2-2-2-|-(2)-2-2-2-2-2-2-2---|
|-0-0-0-0-0-0-0-2-|-(2)-2-2-2-2-2-2-0---|
|---------------0-|-(0)-0-0-0-0-0-0-----|


                E5                    A5
  +E  E E E E E E  E    +E  E E E E E E E
|---------------------|-------------------|
|---------------------|-------------------|
|-(2)-2---------------|-------------------|
|-(2)-2------------2--|-(2)-------2-------|
|-(0)-0-3h4-0------0--|-(0)---------------|
|-------------3h4--0--|-(0)-0-3-4---3-3-4-|
|
|  E  E E E E E E +E     E  E E E E E E E
|---------------------|-------------------|
|---------------------|-------------------|
|--2--2-2-2-2-2-------|---------------2-2-|
|--2--2-2-2-2-2-2-(2)-|--2--2-2-2-2-2-2-2-|
|--0--0-0-0-0-0-2-(2)-|--2--2-2-2-2-2-0-0-|
|---------------0-(0)-|--0--0-0-0-0-0-----|


                  E5
  +E  E E E E E E E   +E  E E E E E E S S
|-------------------|---------------------|
|-------------------|---------------------|
|-(2)-2-------------|---------------------|
|-(2)-2-----------2-|-(2)-2-----2-----0-0-|
|-(0)-0-3-0-3-0---2-|-(2)-2-----------0-0-|
|---------------3-0-|-(0)-0-3-4---3-4-----|
|
|  E  E E E E E E E   +E  E E E E E E E
|-------------------|---------------------|
|-------------------|---------------------|
|--2--2-2-2-2-2-2---|---------------------|
|--2--2-2-2-2-2-2-2-|-(2)-2-2-2-2-2-2-2---|
|--0--0-0-0-0-0-0-2-|-(2)-2-2-2-2-2-2-2---|
|-----------------0-|-(0)-0-0-0-0-0-0-0---|


  Dsus2             A
  Q   E E +E  E +E  E   +H        +E  S S E E
|-------0-(0)---------|------------------------|
|-------------3-(3)-2-|-(2)-------(2)-2-2-2-2--|
|-2---2-------------2-|-(2)-------(2)-2-2-2-2--|
|-0-----------------2-|-(2)-------(2)-2-2-2-2--|
|-0-----------------0-|-(0)-------(0)-0-0-0-0--|
|---------------------|------------------------|
|
| E E E E  E  E  E  E   +E  E E E  E  E   E E
|-0-0-0-0--0--0--0--0-|-(0)-0-0-0--0--0---0-0--|
|-3-3-3-3--3--3--3--2-|-(2)-2-2-2--2--2---2-2--|
|-2-2-2-2--2--2--2--2-|-(2)-2-2-2--2--2---2-2--|
|-0-0-0-0--0--0--0--2-|-(2)-2-2-2--2--2---2-2--|
|-------------------0-|-(0)-0-0-0--0--0---0-0--|
|---------------------|------------------------|


 Chorus
  E5            Dsus2       A
  Q   E E E Q E     +E  E E E +E  E E S S
|-----0---0-0-----|-----0---------0-------|
|-----0---0-0-----|-----0---------0-------|
|-------7-----7---|-(7)---7-6-(6)---6-----|
|-----------------|-----------------------|
|-2---------------|-------------------2-2-|
|-0---------------|-------------------0-0-|
|
| E E E E E E E E   +E  E E E +E  E E E
|---------------0-|-(0)-0-0-0-(0)-0-0-0---|
|---------------3-|-(3)-3-3-2-(2)-2-2-2---|
|---------------2-|-(2)-2-2-2-(2)-2-2-2---|
|-2-2-2-2-2-2-2-0-|-(0)-0-0-2-(2)-2-2-2---|
|-2-2-2-2-2-2-2---|---------0-(0)-0-0-0---|
|-0-0-0-0-0-0-0---|-----------------------|


  E5            Dsus2       A
  Q   E E E Q E     +E  E E E +E  E E S S
|-----0---0-0-----|-----0---------0--------|
|-----0---0-0-----|-----0---------0--------|
|-------7-----7---|-(7)---7-6-(6)---6------|
|-----------------|------------------------|
|-2---------------|-------------------2-2--|
|-0---------------|-------------------0-0--|
|
| E E E E E E E E   +E  E E E +E  E E E
|---------------0-|-(0)-0-0-0-(0)-0-0-0----|
|---------------3-|-(3)-3-3-2-(2)-2-2-2----|
|---------------2-|-(2)-2-2-2-(2)-2-2-2----|
|-2-2-2-2-2-2-2-0-|-(0)-0-0-2-(2)-2-2-2----|
|-2-2-2-2-2-2-2---|---------0-(0)-0-0-0----|
|-0-0-0-0-0-0-0---|------------------------|


  E5            Dsus2       A
  Q   E E E Q E     +E  E E E +E  E E S S
|-----0---0-0-----|-----0---------0-------|
|-----0---0-0-----|-----0---------0-------|
|-------7-----7---|-(7)---7-6-(6)---6-----|
|-----------------|-----------------------|
|-2---------------|-------------------2-2-|
|-0---------------|-------------------0-0-|
|
| E E E E E E E E   +E  E E E +E  E E E
|---------------0-|-(0)-0-0-0-(0)-0-0-0---|
|---------------3-|-(3)-3-3-2-(2)-2-2-2---|
|---------------2-|-(2)-2-2-2-(2)-2-2-2---|
|-2-2-2-2-2-2-2-0-|-(0)-0-0-2-(2)-2-2-2---|
|-2-2-2-2-2-2-2---|---------0-(0)-0-0-0---|
|-0-0-0-0-0-0-0---|-----------------------|


  E5            Dsus2
  Q   E E E Q E     +E  E E E +E  E E E
|-----0---0-0-----|-----0---------0-----|
|-----0---0-0-----|-----0---------0-----|
|-------7-----7---|-(7)---7-6-(6)---2-2-|
|-----------------|-----------------2-2-|
|-2---------------|-----------------0-0-|
|-0---------------|---------------------|
|
| E E E E E E E E   +E  E E E +E  E E E
|---------------0-|-(0)-0-0-0-(0)-0-0-0-|
|---------------3-|-(3)-3-3-3-(3)-3-3-3-|
|---------------2-|-(2)-2-2-2-(2)-2-2-2-|
|-2-2-2-2-2-2-2-0-|-(0)-0-0-0-(0)-0-0-0-|
|-2-2-2-2-2-2-2---|---------------------|
|-0-0-0-0-0-0-0---|---------------------|


 Guitar Break
  Em7/C                    B7
   H      Q.           E   H          Q.     E
|------------------------|---------------------|
|------------------------|---------------------|
|-11b12r==9--------------|-6b7r=======4------1-|
|------------------------|---------------------|
|------------------------|---------------------|
|------------------------|---------------------|
|
|  E    E E  E +E  E E E   E   E E E +E  E E E
|--0----0-0--0-(0)-0-0-0-|-2---2-2-2-(2)-2-2-2-|
|--3----3-3--3-(3)-3-3-3-|-0---0-0-0-(0)-0-0-0-|
|--0----0-0--0-(0)-0-0-0-|-2---2-2-2-(2)-2-2-2-|
|--2----2-2--2-(2)-2-2-2-|-1---1-1-1-(1)-1-1-1-|
|--3----3-3--3-(3)-3-3-3-|-2---2-2-2-(2)-2-2-2-|
|------------------------|---------------------|


  E5
  +W                    +H        +Q.     E
|---------------------|----------------------|
|---------------------|----------------------|
|-(1)-----------------|-(1)-------(1)--------|
|---------------------|----------------------|
|---------------------|-------------------2--|
|---------------------|-------------------0--|
|
|  E  E E E +E  E E E    E  E E E +E  E E E
|---------------------|----------------------|
|---------------------|----------------------|
|---------------------|----------------------|
|--2--2-2-2-(2)-2-2-2-|--2--2-2-2-(2)-2-2-2--|
|--2--2-2-2-(2)-2-2-2-|--2--2-2-2-(2)-2-2-2--|
|--0--0-0-0-(0)-0-0-0-|--0--0-0-0-(0)-0-0-0--|


  +E  E E E  E  E E E   E E E E  E  E E E
|---------------------|-------------------|
|---------------------|-------------------|
|---------------------|-------------------|
|-------------------2-|---2---------------|
|-(2)---4-2--2--2-4-2-|---2-4-2--2------2-|
|-(0)-0-0-0--0--0-0---|-0---0-0--0--3-2-0-|
|
|  E  E E E +E  E E E   E E E E +E  E E E
|---------------------|-------------------|
|---------------------|-------------------|
|---------------------|-------------------|
|--2--2-2-2-(2)-2-2-2-|-2-2-2-2-(2)-2-2-2-|
|--2--2-2-2-(2)-2-2-2-|-2-2-2-2-(2)-2-2-2-|
|--0--0-0-0-(0)-0-0-0-|-0-0-0-0-(0)-0-0-0-|


  +E  E E E  E  E E E   +E  E E E  E  E E E
|---------------------|----------------------|
|---------------------|----------------------|
|---------------------|----------------------|
|-------------------2-|-(2)-2-------------4--|
|-(2)---4-2--2--2-4-2-|-(2)-2-4-2--2--2-2-4--|
|-(0)-0-0-0--0--0-0---|-------0-0--0--0-0-2--|
|
|  E  E E E +E  E E E    E  E E E +E  E E E
|---------------------|----------------------|
|---------------------|----------------------|
|---------------------|----------------------|
|--2--2-2-2-(2)-2-2-2-|--2--2-2-2-(2)-2-2-2--|
|--2--2-2-2-(2)-2-2-2-|--2--2-2-2-(2)-2-2-2--|
|--0--0-0-0-(0)-0-0-0-|--0--0-0-0-(0)-0-0-0--|


  F#11           A5                       E
  Q  Q    E  E E E    E  E  E  E  E   E E E
|------------------|--0--0--0--0--0---0-----|
|------------------|-12-12-12-12-10--10---9-|
|----3----3--3-3---|-13-13-13-13--9--11---9-|
|-4--4----4--4-4---|----------------------9-|
|-4--4----4--4-4-0-|------------------------|
|-2--2----2--2-2-0-|------------------------|
|
| Q  E E +E  E E E    E  E  E  E +E   E E E
|-0--0-0-(0)-0-0---|----------------------0-|
|-0--0-0-(0)-0-0---|----------------------0-|
|-3--3-3-(3)-3-3-2-|--2--2--2--2-(2)--2-2-1-|
|-4--4-4-(4)-4-4-2-|--2--2--2--2-(2)--2-2-2-|
|-4--4-4-(4)-4-4-0-|--0--0--0--0-(0)--0-0-2-|
|-2--2-2-(2)-2-2---|----------------------0-|


  +Q.     E  Q.     E   E E E E  E  E E E
|---------------------|--------------------|
|-(9)--------9--------|-9-9---9------------|
|-(9)--------9--------|-9-9---9------------|
|-(9)--------9--------|-9-9---9------------|
|---------------------|--------------------|
|---------0---------0-|-----0-------3-2-0--|
|
|  E  E E E +E  E E E   E E E E +E  E E E
|--0--0-0-0-(0)-0-0-0-|-0-0-0-0-(0)-0-0-0--|
|--0--0-0-0-(0)-0-0-0-|-0-0-0-0-(0)-0-0-0--|
|--1--1-1-1-(1)-1-1-1-|-1-1-1-1-(1)-1-1-1--|
|--2--2-2-2-(2)-2-2-2-|-2-2-2-2-(2)-2-2-2--|
|--2--2-2-2-(2)-2-2-2-|-2-2-2-2-(2)-2-2-2--|
|--0--0-0-0-(0)-0-0-0-|-0-0-0-0-(0)-0-0-0--|


  +E  E E E  Q.     E    E E  E E +Q    E S S
|---------------------|-----------------------||
|-----9------9------9-|-10-9-10-9-(9)---------||
|-----9------9------9-|--9-9--9-9-(9)---------||
|-----9------9------9-|-11-9-11-9-(9)---------||
|---------------------|-------------------2-2-||
|-(0)-----0-----------|-------------------0-0-||
|
|  E  E E E +E  E E E    E E  E E +E  E E E
|--0--0-0-0-(0)-0-0-0-|--0-0--0-0-(0)-0-0-0---||
|--0--0-0-0-(0)-0-0-0-|--0-0--0-0-(0)-0-0-0---||
|--1--1-1-1-(1)-1-1-1-|--1-1--1-1-(1)-1-1-1---||
|--2--2-2-2-(2)-2-2-2-|--2-2--2-2-(2)-2-2-2---||
|--2--2-2-2-(2)-2-2-2-|--2-2--2-2-(2)-2-2-2---||
|--0--0-0-0-(0)-0-0-0-|--0-0--0-0-(0)-0-0-0---||


 Verse 3
  E5
  E E Q    E  E Q     E E E E +E  E Q
|-------------------|------------------|
|-------------------|------------------|
|-------------------|------------------|
|-------------------|------------------|
|-2-2-4----2--2-4---|-2-2-4-2-(2)-2-2--|
|-0-0-0----0--0-0---|-0-0-0-0-(0)-0-0--|
|
| E E E E +E  E E E   E E E E +E  E Q
|-------------------|------------------|
|-------------------|------------------|
|-------------------|------------------|
|-2-2-2-2-(2)-2-2-2-|-2-2-2-2-(2)-2-2--|
|-2-2-2-2-(2)-2-2-2-|-2-2-2-2-(2)-2-2--|
|-0-0-0-0-(0)-0-0-0-|-0-0-0-0-(0)-0-0--|


  F#1F#11        A5                       E
  Q  E E +E  E E E    E  E  E  E  E   E E E
|----0-0-(0)-0-0---|--0--0--0--0--0---0-----|
|----0-0-(0)-0-0---|-12-12-12-12-10--10---9-|
|-3--3-3-(3)-3-3---|-13-13-13-13--9--11---9-|
|-4--4-4-(4)-4-4---|----------------------9-|
|-4--4-4-(4)-4-4-0-|------------------------|
|-2--2-2-(2)-2-2-0-|------------------------|
|
| Q  E E +E  E E E    E  E  E  E +E   E E E
|-0--0-0-(0)-0-0---|----------------------0-|
|-0--0-0-(0)-0-0---|----------------------0-|
|-3--3-3-(3)-3-3-2-|--2--2--2--2-(2)--2-2-1-|
|-4--4-4-(4)-4-4-2-|--2--2--2--2-(2)--2-2-2-|
|-4--4-4-(4)-4-4-0-|--0--0--0--0-(0)--0-0-2-|
|-2--2-2-(2)-2-2---|----------------------0-|


  +Q.     E  Q.     E   E E E E  E  E E E
|---------------------|--------------------|
|-(9)--------9--------|-9-9---9------------|
|-(9)--------9--------|-9-9---9------------|
|-(9)--------9--------|-9-9---9------------|
|---------------------|--------------------|
|---------0---------0-|-----0-------3-2-0--|
|
|  E  E E E +E  E E E   E E E E +E  E E E
|--0--0-0-0-(0)-0-0-0-|-0-0-0-0-(0)-0-0-0--|
|--0--0-0-0-(0)-0-0-0-|-0-0-0-0-(0)-0-0-0--|
|--1--1-1-1-(1)-1-1-1-|-1-1-1-1-(1)-1-1-1--|
|--2--2-2-2-(2)-2-2-2-|-2-2-2-2-(2)-2-2-2--|
|--2--2-2-2-(2)-2-2-2-|-2-2-2-2-(2)-2-2-2--|
|--0--0-0-0-(0)-0-0-0-|-0-0-0-0-(0)-0-0-0--|


  +E  E E E  Q.     E    E E  E E +Q    E S S
|---------------------|-----------------------|
|-----9------9------9-|-10-9-10-9-(9)---------|
|-----9------9------9-|--9-9--9-9-(9)---------|
|-----9------9------9-|-11-9-11-9-(9)---------|
|---------------------|-------------------2-2-|
|-(0)-----0-----------|-------------------0-0-|
|
|  E  E E E +E  E E E    E E  E E +E  E E E
|--0--0-0-0-(0)-0-0-0-|--0-0--0-0-(0)-0-0-0---|
|--0--0-0-0-(0)-0-0-0-|--0-0--0-0-(0)-0-0-0---|
|--1--1-1-1-(1)-1-1-1-|--1-1--1-1-(1)-1-1-1---|
|--2--2-2-2-(2)-2-2-2-|--2-2--2-2-(2)-2-2-2---|
|--2--2-2-2-(2)-2-2-2-|--2-2--2-2-(2)-2-2-2---|
|--0--0-0-0-(0)-0-0-0-|--0-0--0-0-(0)-0-0-0---|


  E5
  E E Q    E  E Q     E E E E +E  E Q
|-------------------|------------------|
|-------------------|------------------|
|-------------------|------------------|
|-------------------|------------------|
|-2-2-4----2--2-4---|-2-2-4-2-(2)-2-2--|
|-0-0-0----0--0-0---|-0-0-0-0-(0)-0-0--|
|
| E E E E +E  E E E   E E E E +E  E Q
|-------------------|------------------|
|-------------------|------------------|
|-------------------|------------------|
|-2-2-2-2-(2)-2-2-2-|-2-2-2-2-(2)-2-2--|
|-2-2-2-2-(2)-2-2-2-|-2-2-2-2-(2)-2-2--|
|-0-0-0-0-(0)-0-0-0-|-0-0-0-0-(0)-0-0--|


  F#11           A5                       E
  Q  E E +E  E E E    E  E  E  E  E   E E E
|----0-0-(0)-0-0---|--0--0--0--0--0---0-----|
|----0-0-(0)-0-0---|-12-12-12-12-10--10---9-|
|-3--3-3-(3)-3-3---|-13-13-13-13--9--11---9-|
|-4--4-4-(4)-4-4---|----------------------9-|
|-4--4-4-(4)-4-4-0-|------------------------|
|-2--2-2-(2)-2-2-0-|------------------------|
|
| Q  E E +E  E E E    E  E  E  E +E   E E E
|-0--0-0-(0)-0-0---|----------------------0-|
|-0--0-0-(0)-0-0---|----------------------0-|
|-3--3-3-(3)-3-3-2-|--2--2--2--2-(2)--2-2-1-|
|-4--4-4-(4)-4-4-2-|--2--2--2--2-(2)--2-2-2-|
|-4--4-4-(4)-4-4-0-|--0--0--0--0-(0)--0-0-2-|
|-2--2-2-(2)-2-2---|----------------------0-|


  +Q.     E  Q.     E   E E E E  E  E E E
|---------------------|--------------------|
|-(9)--------9--------|-9-9---9------------|
|-(9)--------9--------|-9-9---9------------|
|-(9)--------9--------|-9-9---9------------|
|---------------------|--------------------|
|---------0---------0-|-----0-------3-2-0--|
|
|  E  E E E +E  E E E   E E E E +E  E E E
|--0--0-0-0-(0)-0-0-0-|-0-0-0-0-(0)-0-0-0--|
|--0--0-0-0-(0)-0-0-0-|-0-0-0-0-(0)-0-0-0--|
|--1--1-1-1-(1)-1-1-1-|-1-1-1-1-(1)-1-1-1--|
|--2--2-2-2-(2)-2-2-2-|-2-2-2-2-(2)-2-2-2--|
|--2--2-2-2-(2)-2-2-2-|-2-2-2-2-(2)-2-2-2--|
|--0--0-0-0-(0)-0-0-0-|-0-0-0-0-(0)-0-0-0--|


  +E  E E E  Q.     E    E E  E E +Q    E S S
|---------------------|-----------------------||
|-----9------9------9-|-10-9-10-9-(9)---------||
|-----9------9------9-|--9-9--9-9-(9)-----2-2-||
|-----9------9------9-|-11-9-11-9-(9)-----2-2-||
|---------------------|-------------------0-0-||
|-(0)-----0-----------|-----------------------||
|
|  E  E E E +E  E E E    E E  E E +E  E E E
|--0--0-0-0-(0)-0-0-0-|--0-0--0-0-(0)-0-0-0---||
|--0--0-0-0-(0)-0-0-0-|--0-0--0-0-(0)-0-0-0---||
|--1--1-1-1-(1)-1-1-1-|--1-1--1-1-(1)-1-1-1---||
|--2--2-2-2-(2)-2-2-2-|--2-2--2-2-(2)-2-2-2---||
|--2--2-2-2-(2)-2-2-2-|--2-2--2-2-(2)-2-2-2---||
|--0--0-0-0-(0)-0-0-0-|--0-0--0-0-(0)-0-0-0---||


 Pre Chorus
  A5            E5                  A5
  E E E E E E E E   +E  E E E E E E E
|-----------------|-------------------|
|-----------------|-------------------|
|-2-2-------------|-----------------2-|
|-2-2-----------2-|-(2)-------2-----2-|
|-0-0-3h4-0-3h4-0-|-(0)-------------0-|
|---------------0-|-(0)-0-3-4---0-3---|
|
| E E E E E E E E   +E  E E E E E E E
|-----------------|-------------------|
|-----------------|-------------------|
|-2-2-2-2-2-2-2---|-----------------2-|
|-2-2-2-2-2-2-2-2-|-(2)-2-2-2-2-2-2-2-|
|-0-0-0-0-0-0-0-2-|-(2)-2-2-2-2-2-2-0-|
|---------------0-|-(0)-0-0-0-0-0-0---|


                  E5                  A5
  +E  E E E E E E E   +E  E E E E E E E
|-------------------|-------------------|
|-------------------|-------------------|
|-(2)-2-------------|-----------------2-|
|-(2)-2-----------2-|-(2)-------2-----2-|
|-(0)-0-3-0-3-0---0-|-(0)-------------0-|
|---------------3-0-|-(0)-0-3-4---0-3---|
|
| +E  E E E E E E E   +E  E E E E E E E
|-------------------|-------------------|
|-------------------|-------------------|
|-(2)-2-2-2-2-2-2---|-----------------2-|
|-(2)-2-2-2-2-2-2-2-|-(2)-2-2-2-2-2-2-2-|
|-(0)-0-0-0-0-0-0-2-|-(2)-2-2-2-2-2-2-0-|
|-----------------0-|-(0)-0-0-0-0-0-0---|


                  E5
  +E  E E E E E E E   +E  E E E E E E S S
|-------------------|---------------------|
|-------------------|---------------------|
|-(2)-2-------------|---------------------|
|-(2)-2-----------2-|-(2)-2-----2-----0-0-|
|-(0)-0-3-0-3-0---2-|-(2)-2-----------0-0-|
|---------------3-0-|-(0)-0-3-4---0-3-----|
|
| +E  E E E E E E E   +E  E E E E E E E
|-------------------|---------------------|
|-------------------|---------------------|
|-(2)-2-2-2-2-2-2---|---------------------|
|-(2)-2-2-2-2-2-2-2-|-(2)-2-2-2-2-2-2-2---|
|-(0)-0-0-0-0-0-0-2-|-(2)-2-2-2-2-2-2-2---|
|-----------------0-|-(0)-0-0-0-0-0-0-0---|


 Chorus
  Dsus2             A
  Q   E E +E  E +E  E   +H        +E  S S E E
|-------0-(0)---------|-----------------------|
|-------------3-(3)-2-|-(2)-------(2)-2-2-2-2-|
|-2---2-------------2-|-(2)-------(2)-2-2-2-2-|
|-0-----------------2-|-(2)-------(2)-2-2-2-2-|
|-0-----------------0-|-(0)-------(0)-0-0-0-0-|
|---------------------|-----------------------|
|
| E E E E  E  E  E  E   +E  E E E  E  E   E E
|-0-0-0-0--0--0--0--0-|-(0)-0-0-0--0--0---0-0-|
|-3-3-3-3--3--3--3--2-|-(2)-2-2-2--2--2---2-2-|
|-2-2-2-2--2--2--2--2-|-(2)-2-2-2--2--2---2-2-|
|-0-0-0-0--0--0--0--2-|-(2)-2-2-2--2--2---2-2-|
|-------------------0-|-(0)-0-0-0--0--0---0-0-|
|---------------------|-----------------------|


  E5            Dsus2       A
  Q   E E E Q E     +E  E E E +E  E E S S
|-----0---0-0-----|-----0---------0--------|
|-----0---0-0-----|-----0---------0--------|
|-------7-----7---|-(7)---7-6-(6)---6------|
|-----------------|------------------------|
|-2---------------|-------------------2-2--|
|-0---------------|-------------------0-0--|
|
| E E E E E E E E   +E  E E E +E  E E E
|---------------0-|-(0)-0-0-0-(0)-0-0-0----|
|---------------3-|-(3)-3-3-2-(2)-2-2-2----|
|---------------2-|-(2)-2-2-2-(2)-2-2-2----|
|-2-2-2-2-2-2-2-0-|-(0)-0-0-2-(2)-2-2-2----|
|-2-2-2-2-2-2-2---|---------0-(0)-0-0-0----|
|-0-0-0-0-0-0-0---|------------------------|


  E5            Dsus2
  Q   E E E Q E     +E  E E E +E  E E S S
|-----0---0-0-----|-----0---------0-------|
|-----0---0-0-----|-----0---------0-------|
|-------7-----7---|-(7)---7-6-(6)---6-----|
|-----------------|-----------------------|
|-2---------------|-------------------2-2-|
|-0---------------|-------------------0-0-|
|
| E E E E E E E E   +E  E E E +E  E E E
|---------------0-|-(0)-0-0-0-(0)-0-0-0---|
|---------------3-|-(3)-3-3-2-(2)-2-2-2---|
|---------------2-|-(2)-2-2-2-(2)-2-2-2---|
|-2-2-2-2-2-2-2-0-|-(0)-0-0-2-(2)-2-2-2---|
|-2-2-2-2-2-2-2---|---------0-(0)-0-0-0---|
|-0-0-0-0-0-0-0---|-----------------------|


  E5            Dsus2
  Q   E E E Q E     +E  E E E +E  E E S S
|-----0---0-0-----|-----0---------0--------|
|-----0---0-0-----|-----0---------0--------|
|-------7-----7---|-(7)---7-6-(6)---6------|
|-----------------|------------------------|
|-2---------------|-------------------2-2--|
|-0---------------|-------------------0-0--|
|
| E E E E E E E E   +E  E E E +E  E E E
|---------------0-|-(0)-0-0-0-(0)-0-0-0----|
|---------------3-|-(3)-3-3-2-(2)-2-2-2----|
|---------------2-|-(2)-2-2-2-(2)-2-2-2----|
|-2-2-2-2-2-2-2-0-|-(0)-0-0-2-(2)-2-2-2----|
|-2-2-2-2-2-2-2---|---------0-(0)-0-0-0----|
|-0-0-0-0-0-0-0---|------------------------|


                                            Guitar Solo
  E5            Dsus2                        E5                       Dsus2
  Q   E E E Q E     +E  E E E +E  E E S S    S  E S S S  E  +E  E E    E
|-----0---0-0-----|-----0---------0-------||-------------------------------|
|-----0---0-0-----|-----0---------0-------||------9-9-x-10-(10)-9-9---12---|
|-------7-----7---|-(7)---7-6-(6)---6-----||------9-9-x--9--(9)-9-9---11h==|
|-----------------|-----------------------||-9----9-9-x-11-(11)-9-9--------|
|-2---------------|-------------------2-2-||-9h11--------------------------|
|-0---------------|-------------------0-0-||-------------------------------|
|
| E E E E E E E E   +E  E E E +E  E E E      E    E   E      E  E E E  E
|---------------0-|-(0)-0-0-0-(0)-0-0-0---||---------------------------0---|
|---------------3-|-(3)-3-3-2-(2)-2-2-2---||---------------------------3---|
|---------------2-|-(2)-2-2-2-(2)-2-2-2---||---------------------------2---|
|-2-2-2-2-2-2-2-0-|-(0)-0-0-2-(2)-2-2-2---||-2----2---2------2--2-2-2--0---|
|-2-2-2-2-2-2-2---|---------0-(0)-0-0-0---||-2----2---2------2--2-2-2------|
|-0-0-0-0-0-0-0---|-----------------------||-0----0---0------0--0-0-0------|


                   A
    E   E     S    E  S  E  S  S E S S
|---------------------0--0-------------|
|-(12)----------------0--0-------9-x-x-|
|--13--11b13-11b13r9--9--9--9h11-9-x-x-|
|--------------------11-11-------9-x-x-|
|--------------------------------------|
|--------------------------------------|
|
|  +E   E     E    E    +E  E    E E
|--(0)--0-----0----0----(0)-0----0-0---|
|--(3)--3-----3----2----(2)-2----2-2---|
|--(2)--2-----2----2----(2)-2----2-2---|
|--(0)--0-----0----2----(2)-2----2-2---|
|------------------0----(0)-0----0-0---|
|--------------------------------------|


  E5                       Dsus2          A
  S  E S S S  E  +E  E E    E     E  E  E E +E  S  S E S S
|-----------------------------|------9---------------------|
|------9-9-x-10-(10)-9-9---12-|-(12)---12--------------x-x-|
|------9-9-x--9--(9)-9-9---13-|--11----11-9-(9)-9h11p9-x-x-|
|-9----9-9-x-11-(11)-9-9------|------------------------x-x-|
|-9-11------------------------|----------------------------|
|-----------------------------|----------------------------|
|
| E    E   E      E  E E E  E    +E  E  E E +E  E    E E
|---------------------------0-|--(0)-0--0-0-(0)-0----0-0---|
|---------------------------3-|--(3)-3--3-2-(2)-2----2-2---|
|---------------------------2-|--(2)-2--2-2-(2)-2----2-2---|
|-2----2---2------2--2-2-2--0-|--(0)-0--0-2-(2)-2----2-2---|
|-2----2---2------2--2-2-2----|-----------0-(0)-0----0-0---|
|-0----0---0------0--0-0-0----|----------------------------|


  E5                           Dsus2                  A
  S  E S S S  E  +E  E E  E       E     E     S     S E +E  S  S E S S
|------------------------------|---------------------------------------|
|------9-9-x-10-(10)-9-9-------|-------12----12--------------------x-x-|
|------9-9-x--9--(9)-9-9-11b13-|-11b13-11b13-11b13-11-9-(9)-9h11p9-x-x-|
|-9----9-9-x-11-(11)-9-9-------|-----------------------------------x-x-|
|-9h11-------------------------|---------------------------------------|
|------------------------------|---------------------------------------|
|
| E  E   E    E   E  E E  E            +E     E     E E +E  E    E E
|-------------------------0----|-------(0)----0-----0-0-(0)-0----0-0---|
|-------------------------3----|-------(3)----3-----3-2-(2)-2----2-2---|
|-------------------------2----|-------(2)----2-----2-2-(2)-2----2-2---|
|-2--2---2----2---2--2-2--0----|-------(0)----0-----0-2-(2)-2----2-2---|
|-2--2---2----2---2--2-2-------|----------------------0-(0)-0----0-0---|
|-0--0---0----0---0--0-0-------|---------------------------------------|


  E5                       Dsus2
  S  E S S S  E  +E  E E    E
|--------------------------------|
|------9-9-x-10-(10)-9-9---12----|
|------9-9-x--9--(9)-9-9---11b13-|
|-9----9-9-x-11-(11)-9-9---------|
|-9h11---------------------------|
|--------------------------------|
|
| E    E   E      E  E E E  E
|---------------------------0----|
|---------------------------3----|
|---------------------------2----|
|-2----2---2------2--2-2-2--0----|
|-2----2---2------2--2-2-2-------|
|-0----0---0------0--0-0-0-------|


                                             Interlude
                   A                          E5                 Dsus2
   E     E     +E   E     +E   E     +E  E    Q    E  E  E E +E  E
|------------------------------------------||----------------------|
|-12----12----(12)-12----(12)-12----(12)-0-||-9---10-10-10-9-(9)-8-|
|-11b13-11b13-(11)-11b13-(11)-11b13-(11)-0-||-9----9--9--9-9-(9)-7-|
|------------------------------------------||-9---11-11-11-9-(9)-9-|
|------------------------------------------||----------------------|
|------------------------------------------||----------------------|
|
| +E     E      E   E     +E   E      E  E    E E  E  E  E E  E  E
|-(0)----0------0---0-----(0)--0------0--0-||--------------------0-|
|-(3)----3------3---2-----(2)--2------2--2-||--------------------3-|
|-(2)----2------2---2-----(2)--2------2--2-||--------------------2-|
|-(0)----0------0---2-----(2)--2------2--2-||-2-2--2--2--2-2--2--0-|
|-------------------0-----(0)--0------0--0-||-2-2--2--2--2-2--2----|
|------------------------------------------||-0-0--0--0--0-0--0----|


            A             E5                Dsus2
  +E  E +E  E +E  E Q     E E  E E  E E +E  E
|-----------------------|----------------------|
|-(8)-7-(7)-2-(2)-3-2---|-9-9-10-9-10-9-(9)-8--|
|-(7)-7-(7)-2-(2)-2-2---|-9-9--9-9--9-9-(9)-7--|
|-(9)-7-(7)-2-(2)-4-2---|-9-9-11-9-11-9-(9)-9--|
|-----------------------|----------------------|
|-----------------------|----------------------|
|
| +E  E  E  E +E  E E E   E E  E E  E E  E  E
|-(0)-0--0--0-(0)-0-0-0-|-------------------0--|
|-(3)-3--3--2-(2)-2-2-2-|-------------------3--|
|-(2)-2--2--2-(2)-2-2-2-|-------------------2--|
|-(0)-0--0--2-(2)-2-2-2-|-2-2--2-2--2-2--2--0--|
|-----------0-(0)-0-0-0-|-2-2--2-2--2-2--2-----|
|-----------------------|-0-0--0-0--0-0--0-----|


            A             E5                Dsus2
  +E  E +E  E +E  E Q     E E  E E  E E +E  E
|-----------------------|---------------------|
|-(8)-7-(7)-2-(2)-3-2---|-9-9-10-9-10-9-(9)-8-|
|-(7)-7-(7)-2-(2)-2-2---|-9-9--9-9--9-9-(9)-7-|
|-(9)-7-(7)-2-(2)-4-2---|-9-9-11-9-11-9-(9)-9-|
|-----------------------|---------------------|
|-----------------------|---------------------|
|
| +E  E  E  E +E  E E E   E E  E E  E E  E  E
|-(0)-0--0--0-(0)-0-0-0-|-------------------0-|
|-(3)-3--3--2-(2)-2-2-2-|-------------------3-|
|-(2)-2--2--2-(2)-2-2-2-|-------------------2-|
|-(0)-0--0--2-(2)-2-2-2-|-2-2--2-2--2-2--2--0-|
|-----------0-(0)-0-0-0-|-2-2--2-2--2-2--2----|
|-----------------------|-0-0--0-0--0-0--0----|


            A             E5                Dsus2
  +E  E +E  E +E  E Q     E E  E E  E E +E  E
|-----------------------|----------------------|
|-(8)-7-(7)-2-(2)-3-2---|-9-9-10-9-10-9-(9)-8--|
|-(7)-7-(7)-2-(2)-2-2---|-9-9--9-9--9-9-(9)-7--|
|-(9)-7-(7)-2-(2)-4-2---|-9-9-11-9-11-9-(9)-9--|
|-----------------------|----------------------|
|-----------------------|----------------------|
|
| +E  E  E  E +E  E E E   E E  E E  E E  E  E
|-(0)-0--0--0-(0)-0-0-0-|-------------------0--|
|-(3)-3--3--2-(2)-2-2-2-|-------------------3--|
|-(2)-2--2--2-(2)-2-2-2-|-------------------2--|
|-(0)-0--0--2-(2)-2-2-2-|-2-2--2-2--2-2--2--0--|
|-----------0-(0)-0-0-0-|-2-2--2-2--2-2--2-----|
|-----------------------|-0-0--0-0--0-0--0-----|


                        Outro
          A              E5                        Dsus2
  +E  E E E +E  E Q       Q     Q     E  E  E  E
|---------------------||-----------------------------|
|-(8)-7-7-2-(2)-3-2---||-12--------------------------|
|-(7)-7-7-2-(2)-2-2---||-14b16-14b16-14-12----12-----|
|-(9)-7-7-2-(2)-4-2---||-------------------14--------|
|---------------------||-----------------------------|
|---------------------||-----------------------------|
|
| +E  E E E +E  E E E     E     E     E  E  E  E E E
|-(0)-0-0-0-(0)-0-0-0-||---------------------------0-|
|-(3)-3-3-2-(2)-2-2-2-||---------------------------3-|
|-(2)-2-2-2-(2)-2-2-2-||---------------------------2-|
|-(0)-0-0-2-(2)-2-2-2-||--2-----2-----2--2--2--2-2-0-|
|---------0-(0)-0-0-0-||--2-----2-----2--2--2--2-2---|
|---------------------||--0-----0-----0--0--0--0-0---|


            A                E5                      Dsus2
   +E   E E  E  +E   E E E    Q       Q     E  E   E E
|--------------------------|----------------------------|
|--------------------------|----------------------------|
|-(12)---------------------|-14b16---14b16-14-12-----7--|
|------14-0-12-(12)-14-0-0-|----------------------------|
|--------------------------|----------------------------|
|--------------------------|----------------------------|
|
|  +E   E E  E  +E   E E E    E    E  E     E  E E E E
|--(0)--0-0--0--(0)--0-0-0-|-------------------------0--|
|--(3)--3-3--2--(2)--2-2-2-|-------------------------3--|
|--(2)--2-2--2--(2)--2-2-2-|-------------------------2--|
|--(0)--0-0--2--(2)--2-2-2-|--2----2--2-----2--2-2-2-0--|
|------------0--(0)--0-0-0-|--2----2--2-----2--2-2-2----|
|--------------------------|--0----0--0-----0--0-0-0----|


            A               E5                        Dsus2
  +E  E  E  E  Q  +E  E      Q     Q       E  E  E  E
|-----0-(0)----0--(0)-0---|-----------------------------|
|-----0--------0--(0)-0---|-12--------------------------|
|-(7)----7--6-(6)---------|-14b16-14b16---14-12----12---|
|-------------------------|---------------------14------|
|-------------------------|-----------------------------|
|-------------------------|-----------------------------|
|
| +E  E  E  E +E   E  E E    E     E    E  E  E  E  E E
|-(0)-0--0--0-(0)--0--0-0-|---------------------------0-|
|-(3)-3--3--2-(2)--2--2-2-|---------------------------3-|
|-(2)-2--2--2-(2)--2--2-2-|---------------------------2-|
|-(0)-0--0--2-(2)--2--2-2-|--2-----2----2--2--2--2--2-0-|
|-----------0-(0)--0--0-0-|--2-----2----2--2--2--2--2---|
|-------------------------|--0-----0----0--0--0--0--0---|


             A                  E5                      Dsus2
   +E   E  E  E  +E   E  E  E    Q     Q       E  E   E E
|-----------------------------|----------------------------|
|-----------------------------|----------------------------|
|-(12)----12------------12-14-|-14b16-14b16---14-12-----7--|
|------14----12-(12)-14-------|----------------------------|
|-----------------------------|----------------------------|
|-----------------------------|----------------------------|
|
|  +E   E  E  E  +E   E  E  E    E     E    E  E  E E E E
|--(0)--0--0--0--(0)--0--0--0-|-------------------------0--|
|--(3)--3--3--2--(2)--2--2--2-|-------------------------3--|
|--(2)--2--2--2--(2)--2--2--2-|-------------------------2--|
|--(0)--0--0--2--(2)--2--2--2-|--2-----2----2--2--2-2-2-0--|
|-------------0--(0)--0--0--0-|--2-----2----2--2--2-2-2----|
|-----------------------------|--0-----0----0--0--0-0-0----|


          A                 E5                         Dsus2
  +E  E E E  E  +E   E  E    E      E     E    Q Q   E
|-----0------0--(0)-------|------------------------------|
|-----0------0--(0)-12-12-|-12----(12)---12--------------|
|-(7)---7-6-(6)-----14-14-|-14b16--14b16-14b16-------7---|
|-------------------------|--------------------0-0-------|
|-------------------------|------------------------------|
|-------------------------|------------------------------|
|
| +E  E E E +E   E   E  E    E      E     E    E E E E E
|-(0)-0-0-0-(0)--0---0--0-|----------------------------0-|
|-(3)-3-3-2-(2)--2---2--2-|----------------------------3-|
|-(2)-2-2-2-(2)--2---2--2-|----------------------------2-|
|-(0)-0-0-2-(2)--2---2--2-|--2------2-----2----2-2-2-2-0-|
|---------0-(0)--0---0--0-|--2------2-----2----2-2-2-2---|
|-------------------------|--0------0-----0----0-0-0-0---|


          A                 E5                             Dsus2
  +Q    E E  E   E  +E  E    E      E     E     Q      E   Q
|-------0--------0--(0)-0-|-----------------------------------|
|-------0--------0--(0)-0-|-12----(12)---12----12-------------|
|-(7)-----7--6--(6)-------|-14b16--14b16-14b16-14b16-------7--|
|-------------------------|-----------------------------------|
|-------------------------|-----------------------------------|
|-------------------------|-----------------------------------|
|
| +E  E E E +E   E   E  E    E      E     E     E    E E E E
|-(0)-0-0-0-(0)--0---0--0-|--------------------------------0--|
|-(3)-3-3-2-(2)--2---2--2-|--------------------------------3--|
|-(2)-2-2-2-(2)--2---2--2-|--------------------------------2--|
|-(0)-0-0-2-(2)--2---2--2-|--2------2-----2-----2----2-2-2-0--|
|---------0-(0)--0---0--0-|--2------2-----2-----2----2-2-2----|
|-------------------------|--0------0-----0-----0----0-0-0----|


          A               E5                             Dsus2
  +Q    E E  E  E +E  E    Q      Q     E     E        E E
|-------0-------0-(0)-0-|----------------------------------|
|-------0-------0-(0)-0-|-12----(12)---12----12------------|
|-(7)-----7--6--6-------|-14b16--14b16-14b16-14b16-------7-|
|-----------------------|------------------------------0---|
|-----------------------|----------------------------------|
|-----------------------|----------------------------------|
|
| +E  E E E +E  E  E  E    E      E     E     E    E E E E
|-(0)-0-0-0-(0)-0--0--0-|--------------------------------0-|
|-(3)-3-3-2-(2)-2--2--2-|--------------------------------3-|
|-(2)-2-2-2-(2)-2--2--2-|--------------------------------2-|
|-(0)-0-0-2-(2)-2--2--2-|--2------2-----2-----2----2-2-2-0-|
|---------0-(0)-0--0--0-|--2------2-----2-----2----2-2-2---|
|-----------------------|--0------0-----0-----0----0-0-0---|


          A             E5                                        Dsus2
  +Q  Q E E  E      E    E     E     E     E     E     E     E     E
|-----0------0------0-|--------------------------------------------------|
|-----0------0------0-|-12----12----12----12----12----12----12----12-----|
|-(7)---7-6-(6)-------|-14b16-14b16-14b16-14b16-14b16-14b16-14b16-14b16--|
|---------------------|--------------------------------------------------|
|---------------------|--------------------------------------------------|
|---------------------|--------------------------------------------------|
|
| +E  E E E +E  E E E    E     E     E     E     E     E     E     E
|-(0)-0-0-0-(0)-0-0-0-|--------------------------------------------0-----|
|-(3)-3-3-2-(2)-2-2-2-|--------------------------------------------3-----|
|-(2)-2-2-2-(2)-2-2-2-|--------------------------------------------2-----|
|-(0)-0-0-2-(2)-2-2-2-|--2-----2-----2-----2-----2-----2-----2-----0-----|
|---------0-(0)-0-0-0-|--2-----2-----2-----2-----2-----2-----2-----------|
|---------------------|--0-----0-----0-----0-----0-----0-----0-----------|


                    A
   E     E     E     E     E     E     E     E
|-------------------------------------------------|
|-12----12----12----12----12----12----12----12----|
|-14b16-14b16-14b16-14b16-14b16-14b16-14b16-14b16-|
|-------------------------------------------------|
|-------------------------------------------------|
|-------------------------------------------------|
|
| +E     E     E     E    +E     E     E     E
|-(0)----0-----0-----0----(0)----0-----0-----0----|
|-(3)----3-----3-----2----(2)----2-----2-----2----|
|-(2)----2-----2-----2----(2)----2-----2-----2----|
|-(0)----0-----0-----2----(2)----2-----2-----2----|
|--------------------0----(0)----0-----0-----0----|
|-------------------------------------------------|


  E5
   W              +W               +W
|--------------|----------------|------------*|
|-12-----------|-(12)-----------|-(12)-------*|
|-14b16--------|-(14)b16--------|-(14)b16----*|
|--------------|----------------|------------*|
|--------------|----------------|------------*|
|--------------|----------------|------------*|
|
|  W               W                W
|--------------|----------------|------------*|
|--------------|----------------|------------*|
|--------------|----------------|------------*|
|--2-----------|----------------|------------*|
|--2-----------|----------------|------------*|
|--0-----------|----------------|------------*|


Duration Legend
---------------
W - whole; H - half; Q - quarter; E - 8th; S - 16th; T - 32nd; X - 64th; a - acciaccatura
+ - note tied to previous; . - note dotted; .. - note double dotted
Uncapitalized letters represent notes that are staccato (1/2 duration)
Irregular groupings are notated above the duration line
Duration letters will always appear directly above the note/fret number it represents the
duration for.  Duration letters with no fret number below them represent rests.  Multi-
bar rests are notated in the form Wxn, where n is the number of bars to rest for.  Low
melody durations appear below the staff

Tablature Legend
----------------
 h   - hammer-on
 p   - pull-off
 b   - bend
 pb  - pre-bend
 r   - bend release (if no number after the r, then release immediately)
 /\  - slide into or out of (from/to "nowhere")
 s   - legato slide
 S   - shift slide
  - natural harmonic
[n]  - artificial harmonic
n(n) - tapped harmonic
 ~   - vibrato
 tr  - trill
 T   - tap
 TP  - trem. picking
 PM  - palm muting
\n/  - tremolo bar dip; n = amount to dip
 \n  - tremolo bar down
 n/  - tremolo bar up
/n\  - tremolo bar inverted dip
 =   - hold bend; also acts as connecting device for hammers/pulls
 <>  - volume swell (louder/softer)
 x   - on rhythm slash represents muted slash
 o   - on rhythm slash represents single note slash

Misc Legend
-----------
 |  - bar
||  - double bar
||o - repeat start
o|| - repeat end
*|  - double bar (ending)
 :  - bar (freetime)
 $  - Segno
 &  - Coda
Tempo markers -  = BPM(8/16=s8/s16), where s8 = swing 8ths, s16 = swing 16ths
Tap to rate this tab
# A B C D E F G H I J K L M N O P Q R S T U V W X Y Z