Song name
# A B C D E F G H I J K L M N O P Q R S T U V W X Y Z

Oasis - Sunday Morning Call tab

Song: Sunday Morning Call
Band: Oasis
Written by: The amazing MR Noel Gallagher
Album: Standing on the shoulders of giants
Tabbed by: Josh01993
Tuning: Standard

So, Ive seen a few tabs for this on here, but they dont include the picking for the end 
of the chorus and the lyrics are off. If only people would listen to the lyrics instead 
of googling them =(.
Anyway, I was bored one night so I thought Id tab it out for you guys, Ive included the 
fills for the chorus, It sounds pretty good and close to my ears.
Sang it a few times down the pub for a laugh, never had anyone complain I wasnt playing 
it right ha. And it sounds the same as the album version.
The chords that have more than one option are for you to pick which one sounds best for 
your singing style, if you're into singing and playing.
Oh yeah, almost forgot, I have the correct version of the solo up to a point, it gets 
murky after that =(.
Hope you enjoy, doubt many of you read the paragraphs before tabs, but for those that 
do. THANKS!
If you have any corrections or comments, Email me @ Josh-Marshall93@hotmail.com I am 
afterall only human, and im bound to make mistakes.
ANYWAY, ONWARD TO THE TAB!
Once again, almost forgot,
Its acoustic, but playing it on a nice clean channel sounds pretty good too, dont 
overdrive this =(, it would kill the song.

Personally, I like the live version best, so I use Fmaj7 and cadd9. But thats just me.


Chords:
Bb : 688766
Dm7:  xx0560 (played live) for the album its x57565
D:   xx0232
G:   320033 (for the live version Gem plays it differently, but I havent yet worked that 
one out)
Em:  022000
Am7: x02010
F(can be played as Fmaj7): 133211 or x33211 or x33210 (whatever sounds best for you)
Am:  x02210
C:   x32010 or 332010 or if you want a little calmer feel, Cadd9 x32030 (how its played live.)

intro : For the last beat, pull of the 7 to the 6, then hammer on the next stroke. So if 
you're counting, its 1+, 2+,3(hammer on)+,4


Fill 1 (Played just after its okay, for this fact I like to play Asus4 instead of Am, 
but thats just me)
e-----0-------0--------0----------2---2-2-2----|
B-------3-------3--------3--------3---3-3-3----|
G---2-------2--------2------------2---2-2-2----|
D-2-------1--------0--------------0---0-0-0----|
A----------------------------------------------|
E----------------------------------------------|


Fill 2 (Played one the second D, after its alright)
e-----0-----------0----------0------0h2p0---------------|
B--------3----------3----------3----------3----3--------|
G---2-----------2----------2-----------------2---2------|
D-2-----------1----------0------------------------------|
A------------------Sounds about right-------------------|
E-------------------------------------------------------|

Bb                    Dm7
Here's another Sunday morning call
       Bb                 Dm7
Yeah, They're banging on the door
Bb                               Dm7
You slip those shoes on and then out you crawl
       Bb                         Dm7
Into a day that couldn't give you more
         D
But what for?


Chorus :
            G            D
And In your head, do you feel
            Em              Am7
What you're not supposed to feel
        G              D
And you take, what you want
        F                Em     D
But you don't get it for free
    G          D
You need, more time
           Em                       Am           G
Cause your thoughts and words won't last forever more
             D
But I'm not sure
       C              Am
If it ever works out right
             Fill 1  fill2
But it's ok,______  it's alright



Bb                     Dm7
When you're lonely and you start to hear
                Bb                   Dm7
The little voices in your head at night
Bb                  Dm7
You will only sniff away the tears
              Bb                 Dm7
So you can dance until the morning light
            D
But at what price?


Chorus


Solo:

e--------------------|---------------------------------|------------------|---------------------|
B--------------------|---------------------------------|------6-----------|------6--------------|
G--5b7--5br7--3------|--------------3-------3~---------|-5/7-----5b7r5~---|-5h7-----5b7r5~------|
D-----------------5--|--------3--5------5--------5~----|------------------|---------------------|
A--------------------|--3--5---------------------------|------------------|---------------------|
E--------------------|---------------------------------|------------------|---------------------|

e--------------------|---------------------------------|------------------|---------------------|
B--------------------|---------------------------------|------6-----------|--------6------------|
G--5b7--5br7--3------|--------------3-----3~-----------|-5/7----5b7r5~----|-5h7-------5b7r5~----|
D-----------------5--|--------3--5-----5-----5--3--5~--|------------------|---------------------|
A--------------------|--3--5---------------------------|------------------|---------------------|
E--------------------|---------------------------------|------------------|---------------------|

e--------------------|
B--------------------|
G--5--4--5--6--7~----|Most people would say improvise for a bit they cant tab,
D--------------------|personally Id rather just say I couldnt make out the notes
A--------------------|so....Yeah, play whatever sounds good for you, make stuff 
E--------------------|up....Its what I do, I couldnt make it out.



             G            D
And In your head, do you feel
            Em              Am7
What you're not supposed to feel
        G              D
And you take, what you want
        F                  Em     D
But you can't get hope for free
    G          D
You need, more time
            Em                       Am           G
Cause your thoughts and words won't last forever more
             D
But I'm not sure

       F        C              G            D
If it ever ever ever works out right
       F        C              G            D
If it ever ever ever works out right
          F           C                     G
Cause it never never never works out right
Tap to rate this tab
# A B C D E F G H I J K L M N O P Q R S T U V W X Y Z