Song name
# A B C D E F G H I J K L M N O P Q R S T U V W X Y Z

Oasis - Live Forever Acoustic tab

[Oasis - Live Forever (Acoustic solo)]

Chords: G D Am C Em F



      G                   D                       Am

e|---------------------------------------------------------|
B|---------------------------------------------------------|
G|-------0----2s4--2-0-----0h2--------2s4--2-0-----0h2-----|
D|---0h2----------------2-----------------------2------2-2-|
A|---------------------------------------------------------|
E|---------------------------------------------------------|

     C         D          G
e|--------------------------|
B|--------------------------|
G|---0----0-----------------|
D|---0h2--0---0----0--0-----|
A|------------0h2--2--0-----|
E|------------------------3-|

   G           D                      Am
e|---------------------------------------------|
B|---------------------------------------------|
G|------------0h2-------2s4--2--0-----0h2------|
D|------0--2-----------------------2-------2-2-|
A|---------------------------------------------|
E|---------------------------------------------|

     C        D
e|----------------------|
B|----------------------|
G|---0----0-------------|
D|---0h2--0---0----0--0-|
A|------------0h2--2--0-|
E|----------------------|

       Em                  D                          Am
e|--------------------------------------------------------------------|
B|---2s5-5-5-5-5-5-5-5-5-5-3---3--------------------------------------|
G|---------------------------4---4-2-4-2-0-2-0---0-2-0-2s4-2--0-2-0---|
D|---------------------------------------------2--------------------2-|
A|--------------------------------------------------------------------|
E|--------------------------------------------------------------------|

               C            D
e|-----------------------------|
B|-----------------------------|
G|-----------0--2s4-4--2-0---0-|
D|-------0h2---------------2---|
A|---0h2-----------------------|
E|-----------------------------|

              Em                 D                            Am
e|-------------------------------------------------------------------------|
B|-------3--5-5-5-5-5-5-5-5-5-5-3---3--------------------------------------|
G|---2s4--------------------------4---4-2-4-2-0-2-0---0--2-0-2s4-2-0-2-0---|
D|--------------------------------------------------2--------------------2-|
A|-------------------------------------------------------------------------|
E|-------------------------------------------------------------------------|

             F
e|-----------------------------------------------------------|
B|-----------------------------------------------------------|
G|----------0-0---------0-0---------0--2s4-4-2-0---0--0---0--|
D|------0h2---------0h2---------0h2--------------2------2----|
A|--0h2---------0h2---------0h2------------------------------|
E|-----------------------------------------------------------|


You can play the solo this way as it is in the EMajor scale, as is the original version, 
but just an Octave higher. For example,
where the 0 is, you would play the 12th fret for the solo, but I don't recommend this on 
an acoustic. It is much
easier doing it this way if you want to play along with an acoustic guitar.

You can also incorporate some of the solo when playing the chords if you can
figure it out on your own.

Good luck,

Billy.
Tap to rate this tab
 
# A B C D E F G H I J K L M N O P Q R S T U V W X Y Z