Song name
# A B C D E F G H I J K L M N O P Q R S T U V W X Y Z

Oasis - Shakermaker Acoustic chords

Highlighted       Show chord diagrams
Oasis
Definitely Maybe
Shakermaker (Acoustic)

Tuning: Standard (EADGBE)

-----------------------------------------------------------------------------

B7| 021200 |
E7| 067600 |
Am| 002210 |
 E| 022100 |
F#| 244322 |
 D| 000230 |
 A| 002220 |

-----------------------------------------------------------------------------

Intro Riff (Slide between B7 & E7)

    B7
E|-------------------------------------0-----------|
B|--------0-----------0----------0-------0---------|
G|------2---2-------2---2------2---2-------2-------|
D|----1-------1---1-------1--1-------1-------1-----|
A|--2-----------2----------2-------------------2---|
E|-------------------------------------------------|
    E7
E|----------------------------|
B|--------0-----------0-------|
G|------7---7-------7---7-----|
D|----6-------6---6-------6---|
A|--7-----------7-------------|
E|----------------------------|
    B7
E|--------------0-----------|
B|--------0-------0---------|
G|------2---2-------2-------|
D|----1-------1-------1-----|
A|--2-------------------2---|
E|--------------------------|


Am, E, D7, F#


D7
I'd like to be somebody else and not know where I've been
E7                               D7
I'd like to build myself a house out of plasticine
Am     E
Ahhhhh Ahhhhh
D7
Shake along with me
Am     E
Ahhhhh Ahhhhh
D7                   F#
Shake along with me


D7
I've been driving in my car with my friend Mister Soft
E7                            D7
Mister Clean and Mister Ben are living in my loft
Am     E
Ahhhhh Ahhhhh
D7
Shake along with me
Am     E
Ahhhhh Ahhhhh
D7
Shake along with me


(Instrumental) D7, E7, D7, Am, E, D7


D               A          D7
I'm sorry but I just don't know
D                 A        D7
I know you said I told you so
D               A                        D7
But when you're happy and you're feeling fine
                          Am         E
Then you'll know it's the right time
                          Am         E
Then you'll know it's the right time


(Tap Guitar Body)


D7
To shake along with me
Shake along with me
      E7
Shake along with me
      D7
Shake along with me


(Instrumental) Am, E, D7, F#


D7
Mister Sifter sold me songs when I was just sixteen
E7                                 D7
Now he stops at traffic lights but only when they're green
Am     E
Ahhhhh Ahhhhh
D7
Shake along with me
Am     E
Ahhhhh Ahhhhh
D7
Shake along with me
Am     E
Ahhhhh Ahhhhh
D7
Shake along with me
Am     E
Ahhhhh Ahhhhh


(Tap Guitar Body)


D7
Shake along with me
Shake along with me
      E7
Shake along with them
      D7
Shake along with me

Am, E, D7, F#
Tap to rate this tab
 
# A B C D E F G H I J K L M N O P Q R S T U V W X Y Z