Song name
# A B C D E F G H I J K L M N O P Q R S T U V W X Y Z

Oasis - Rock N Roll Star tab

Oasis-Rock N Roll Star

Intro
e ------------------------------------|
B ------------------------------------|
G --6b8--8r6--4-----4h6--6b8--8r6--4--|
D --------------4h6-------------------|
A ------------------------------------|
E ------------------------------------|

B E
B E
C#m A B E

Verse 1

B                          E
I live my life in the city 
B                       E
There's no easy way out 
C#m               A                   B  E
The day's moving just too fast for me 
B                                E
I need some time in the sunshine 
B                          E
I gotta slow it right down
C#m               A                   B  E 
The day's moving just too fast for me 

Pre-Chorus

 G                      E
I live my life for the stars that shine 
 B
People say it's just a waste of time 
 G                       E
When they said I should feed my head 
 B
That to me was just a day in bed
 G                      E 
I'll take my car and drive real far
 B 
They're not concerned about the way we are 
 A
In my mind my dreams are real 
 F#
Now you concerned about the way I feel 

Chorus

 A     E                       B  E
Tonight I'm a Rock 'n' Roll star
 A     E                       B  E
Tonight I'm a Rock 'n' Roll star

Verse 2

B                          E
I live my life in the city 
B                       E
There's no easy way out 
C#m               A                   B  E
The day's moving just too fast for me 
B                                E
I need some time in the sunshine 
B                          E
I gotta slow it right down
C#m               A                   B  E 
The day's moving just too fast for me 

Pre-Chorus

 G                      E
I live my life for the stars that shine 
 B
People say it's just a waste of time 
 G                       E
When they said I should feed my head 
 B
That to me was just a day in bed
 G                      E 
I'll take my car and drive real far
 B 
They're not concerned about the way we are 
 A
In my mind my dreams are real 
 F#
Now you concerned about the way I feel

Chorus

 A     E                       B  E
Tonight I'm a Rock 'n' Roll star
 A     E                       B  E
Tonight I'm a Rock 'n' Roll star
 A     E                       B  E
Tonight I'm a Rock 'n' Roll star

 A
You're not down with who I am
 E
Look at you now, you're all in my hands tonight

Solo
e-----------------------------------------------------------|
B-----------------------------------------------------------|
G-------7h8p7--------------------------------7--------------|
D------------------9---7---9b11r9---7----9--------9---------|
A-----------------------------------------------------------|
E-----------------------------------------------------------|

e----------------------------------------------------------------|
B-----------------------------------------10---------------------|
G-------7h8p7-----------------------9s11-------9b11r9----7-------|
D------------------9---7---9b11r9--------------------------------|
A----------------------------------------------------------------|
E----------------------------------------------------------------|

e---------------------------------------------------|
B----------7-----------7-----------7----------7-----|
G---9b11--------9b11--------9b11-------9b117--------|
D---------------------------------------------------|
A---------------------------------------------------|
E---------------------------------------------------|

e-----------------------------------------------------------|
B-----------------------------------------------------------|
G-------7h8p7--------------------------------7--------------|
D------------------9---7---9b11r9---7----9--------9---------|
A-----------------------------------------------------------|
E-----------------------------------------------------------|

e----------------------------------------------------------------|
B-----------------------------------------10---------------------|
G-------7h8p7-----------------------9s11-------9b11r9----7-------|
D------------------9---7---9b11r9--------------------------------|
A----------------------------------------------------------------|
E----------------------------------------------------------------|

e---------------------------------------------------|
B----------7-----------7-----------7----------7-----|
G---9b11--------9b11--------9b11-------9b117--------|
D---------------------------------------------------|
A---------------------------------------------------|
E---------------------------------------------------|

e-----------------------------------------------------------|
B-----------------------------------------------------------|
G-------7h8p7--------------------------------7--------------|
D------------------9---7---9b11r9---7----9--------9---------|
A-----------------------------------------------------------|
E-----------------------------------------------------------|

Chorus

 A     E                       B  E
Tonight I'm a Rock 'n' Roll star
 A     E                       B  E
Tonight I'm a Rock 'n' Roll star
 A     E                       B  E
Tonight I'm a Rock 'n' Roll star

Outro

F#   E      F#     E
It's just Rock 'n' Roll 
F#   E      F#     E
It's just Rock 'n' Roll 
F#   E      F#     E
It's just Rock 'n' Roll 
F#   E      F#     E
It's just Rock 'n' Roll 
F#   E      F#     E
It's just Rock 'n' Roll 
F#   E      F#     E
It's just Rock 'n' Roll 
F#   E      F#     E
It's just Rock 'n' Roll 
F#   E      F#     E
It's just Rock 'n' Roll 
Tap to rate this tab
# A B C D E F G H I J K L M N O P Q R S T U V W X Y Z