Song name
# A B C D E F G H I J K L M N O P Q R S T U V W X Y Z

Oasis - Carry Us All tab

                       As recorded by Oasis
                         (Released as a Single in 2000)

Words and Music by Noel Gallagher


          Dm                 Dmadd9                  G                 Dmopen
      x x 0 7 6 5          x x 0 7 6 0          3 2 0 0 3 3          x x 0 2 3 1

        Fmaj7/C                 C                 Cadd2/B                Am
      x 3 3 2 1 0          x 3 2 0 1 0          x 2 0 0 1 0          x 0 2 2 1 0

           D                  Gadd4                 Bb                    F
      x x 0 2 3 2          3 2 0 0 1 3          6 8 8 7 6 6          1 3 3 2 1 1

Gtr I (E A D G B E) - 'Acoustic'
Gtr II (E A D G B E) - 'Overdriven electric guitar'

 Intro
  Q=78
  Dm       Dmadd9 G                Dm       Dmadd9 G
 4/4
  Gtr I
  S S S E. Q  E E S S   W          S S S E. Q  E E S S   H.      E S S
|-------5--0------3-3-|-3--------|-------5--0------3-3-|-3---------1-1-||
|-----6-------6---3-3-|-3--------|-----6-------6---3-3-|-3---------3-3-||
|---7-----------7-0-0-|-0--------|---7-----------7-0-0-|-0---------2-2-||
|-0---------------0-0-|-0--------|-0---------------0-0-|-0---------0-0-||
|-----------------2-2-|-2--------|-----------------2-2-|-2-------------||
|-----------------3-3-|-3--------|-----------------3-3-|-3-------------||


 Verse
  Dmopen              G
  E E E S S E E E E   E E E S S E E E E
|-1-1-1-1-1-1-1-1-1-|-3-3-3-3-3-3-3-3-3-|
|-3-3-3-3-3-3-3-3-3-|-3-3-3-3-3-3-3-3-3-|
|-2-2-2-2-2-2-2-2-2-|-0-0-0-0-0-0-0-0-0-|
|-0-0-0-0-0-0-0-0-0-|-0-0-0-0-0-0-0-0-0-|
|-------------------|-2-2-2-2-2-2-2-2-2-|
|-------------------|-3-3-3-3-3-3-3-3-3-|


  Dmopen              G
  E E E S S E E E E   E E E S S E E E E
|-1-1-1-1-1-1-1-1-1-|-3-3-3-3-3-3-3-3-3-|
|-3-3-3-3-3-3-3-3-3-|-3-3-3-3-3-3-3-3-3-|
|-2-2-2-2-2-2-2-2-2-|-0-0-0-0-0-0-0-0-0-|
|-0-0-0-0-0-0-0-0-0-|-0-0-0-0-0-0-0-0-0-|
|-------------------|-2-2-2-2-2-2-2-2-2-|
|-------------------|-3-3-3-3-3-3-3-3-3-|


  Dmopen              G
  E E E S S E E E E   E E E S S E E E E
|-1-1-1-1-1-1-1-1-1-|-3-3-3-3-3-3-3-3-3-|
|-3-3-3-3-3-3-3-3-3-|-3-3-3-3-3-3-3-3-3-|
|-2-2-2-2-2-2-2-2-2-|-0-0-0-0-0-0-0-0-0-|
|-0-0-0-0-0-0-0-0-0-|-0-0-0-0-0-0-0-0-0-|
|-------------------|-2-2-2-2-2-2-2-2-2-|
|-------------------|-3-3-3-3-3-3-3-3-3-|


  Dmopen              G
  E E E S S E E E E   E E E S S E E E E
|-1-1-1-1-1-1-1-1-1-|-3-3-3-3-3-3-3-3-3-||
|-3-3-3-3-3-3-3-3-3-|-3-3-3-3-3-3-3-3-3-||
|-2-2-2-2-2-2-2-2-2-|-0-0-0-0-0-0-0-0-0-||
|-0-0-0-0-0-0-0-0-0-|-0-0-0-0-0-0-0-0-0-||
|-------------------|-2-2-2-2-2-2-2-2-2-||
|-------------------|-3-3-3-3-3-3-3-3-3-||


 Pre-Chorus
  $
  Fmaj7/C     G           C     Cadd2/Am              Fmaj7/C     G
  Gtr II
  Q   Q       E E   E E   Q     Q     E E   E   E     Q   Q       Q     Q
  |   |       | |   | |   |     |     | |   |   |     |   |       |     |
  /   /       / /   / /   /     /     / /   /   /     /   /       /     /

  E E S S S S E S S E E   E S S E S S E S S S S S S   E E S S S S E S S E E
|-0-0-0-0-0-0-3-3-3-3-3-|-0-0-0-0-0-0-0-0-0-0-0-0-0-|-0-0-0-0-0-0-3-3-3-3-3-|
|-1-1-1-1-1-1-3-3-3-3-3-|-1-1-1-1-1-1-1-1-1-1-1-1-1-|-1-1-1-1-1-1-3-3-3-3-3-|
|-2-2-2-2-2-2-0-0-0-0-0-|-0-0-0-0-0-0-2-2-2-2-2-2-2-|-2-2-2-2-2-2-0-0-0-0-0-|
|-3-3-3-3-3-3-0-0-0-0-0-|-2-2-2-0-0-0-2-2-2-2-2-2-2-|-3-3-3-3-3-3-0-0-0-0-0-|
|-3-3-3-3-3-3-2-2-2-2-2-|-3-3-3-2-2-2-0-0-0-0-0-0-0-|-3-3-3-3-3-3-2-2-2-2-2-|
|-------------3-3-3-3-3-|---------------------------|-------------3-3-3-3-3-|


  D       Fmaj7/C         G                   Gadd4
  Q   Q   Q     Q         E E E S S E E E E   E E E S S E E S S S S
  |   |   |     |         | | | | | | | | |   | | | | | | | | | | |
  /   /   /     /         / / / / / / / / /   / / / / / / / / / / /

  E E E E E S S S S S S   E E E S S E E E E   E E E S S E E S S S S
|-2-2-2-2-0-0-0-0-0-0-0-|-3-3-3-3-3-3-3-3-3-|-3-3-3-3-3-3-3-3-3-3-3-||
|-3-3-3-3-1-1-1-1-1-1-1-|-3-3-3-3-3-3-3-3-3-|-1-1-1-1-1-1-1-1-1-1-1-||
|-2-2-2-2-2-2-2-2-2-2-2-|-0-0-0-0-0-0-0-0-0-|-0-0-0-0-0-0-0-0-0-0-0-||
|-0-0-0-0-3-3-3-3-3-3-3-|-0-0-0-0-0-0-0-0-0-|-0-0-0-0-0-0-0-0-0-0-0-||
|---------3-3-3-3-3-3-3-|-2-2-2-2-2-2-2-2-2-|-2-2-2-2-2-2-2-2-2-2-2-||
|-----------------------|-3-3-3-3-3-3-3-3-3-|-3-3-3-3-3-3-3-3-3-3-3-||


 Chorus
  C           Cadd2/B
  E E   E S S E E   E   E
  | |   | | | | |   |   |
  / /   / / / / /   /   /

  E S S E S S E S S S S S S
|-0-0-0-0-0-0-0-0-0-0-0-0-0-|
|-1-1-1-1-1-1-1-1-1-1-1-1-1-|
|-0-0-0-0-0-0-0-0-0-0-0-0-0-|
|-2-2-2-2-2-2-0-0-0-0-0-0-0-|
|-3-3-3-3-3-3-2-2-2-2-2-2-2-|
|---------------------------|


  Am            Bb            F           G
  E E   E   S S E E E   E     E E E   S S E E E   E
  | |   |   | | | | |   |     | | |   | | | | |   |
  / /   /   / / / / /   /     / / /   / / / / /   /

  E S S S S S S E E S S S S   E E S S S S E E S S S S
|-0-0-0-0-0-0-0-1-1-1-1-1-1-|-1-1-1-1-1-1-3-3-3-3-3-3--|
|-1-1-1-1-1-1-1-3-3-3-3-3-3-|-1-1-1-1-1-1-3-3-3-3-3-3--|
|-2-2-2-2-2-2-2-3-3-3-3-3-3-|-2-2-2-2-2-2-0-0-0-0-0-0--|
|-2-2-2-2-2-2-2-3-3-3-3-3-3-|-3-3-3-3-3-3-0-0-0-0-0-0--|
|-0-0-0-0-0-0-0-1-1-1-1-1-1-|-3-3-3-3-3-3-2-2-2-2-2-2--|
|---------------------------|-1-1-1-1-1-1-3-3-3-3-3-3--|


  Am          Fmaj7/C   C           Cadd2/B         Am            Bb
  E E E   S S E E E E   E E   E S S E E   E   E     E E   E   S S E E E   E
  | | |   | | | | | |   | |   | | | | |   |   |     | |   |   | | | | |   |
  / / /   / / / / / /   / /   / / / / /   /   /     / /   /   / / / / /   /

  E E S S E   E E E E   E S S E S S E S S S S S S   E S S S S S S E E S S S S
|-0-0-0-0-0---0-0-0-0-|-0-0-0-0-0-0-0-0-0-0-0-0-0-|-0-0-0-0-0-0-0-1-1-1-1-1-1--|
|-1-1-1-1-1---1-1-1-1-|-1-1-1-1-1-1-1-1-1-1-1-1-1-|-1-1-1-1-1-1-1-3-3-3-3-3-3--|
|-2-2-2-2-2---2-2-2-2-|-0-0-0-0-0-0-0-0-0-0-0-0-0-|-2-2-2-2-2-2-2-3-3-3-3-3-3--|
|-2-2-2-2-2---3-3-3-3-|-2-2-2-2-2-2-0-0-0-0-0-0-0-|-2-2-2-2-2-2-2-3-3-3-3-3-3--|
|-0-0-0-0-0---3-3-3-3-|-3-3-3-3-3-3-2-2-2-2-2-2-2-|-0-0-0-0-0-0-0-1-1-1-1-1-1--|
|---------------------|---------------------------|----------------------------|


                                          To Coda
  F           G             Am          G
  E E E   S S E E E   E     E E E   S S  E E E E
  | | |   | | | | |   |     | | |   | |  | | | |
  / / /   / / / / /   /     / / /   / /  / / / /

  E E S S S S E E S S S S   E E S S E    H
|-1-1-1-1-1-1-3-3-3-3-3-3-|-0-0-0-0-0---!3--------||
|-1-1-1-1-1-1-3-3-3-3-3-3-|-1-1-1-1-1---!3--------||
|-2-2-2-2-2-2-0-0-0-0-0-0-|-2-2-2-2-2---!0--------||
|-3-3-3-3-3-3-0-0-0-0-0-0-|-2-2-2-2-2---!0--------||
|-3-3-3-3-3-3-2-2-2-2-2-2-|-0-0-0-0-0---!2--------||
|-1-1-1-1-1-1-3-3-3-3-3-3-|-------------!3--------||


 Link
  Dmopen               G
  Gtr II
   E E E S S E E E E    E E E S S E E E E
   | | | | | | | | |    | | | | | | | | |
   / / / / / / / / /    / / / / / / / / /

  Gtr I
   Q   E E   E E E E    Q   E E   E E E E
|-!1---1-----1-------|-!3---3-----3-------|
|-!3-----3-----3-----|-!3-----------3-----|
|-!2-------------2---|-!0-----0-------0---|
|-!0---------------0-|-!0---------------0-|
|--------------------|-!2-----------------|
|--------------------|-!3-----------------|


  Dmopen               G
   E E E S S E E E E    E E E S S E E E E
   | | | | | | | | |    | | | | | | | | |
   / / / / / / / / /    / / / / / / / / /

   Q   E E   E E E E    Q   E E   E E E E
|-!1---1-----1-------|-!3---3-----3-------||
|-!3-----3-----3-----|-!3-----------3-----||
|-!2-------------2---|-!0-----0-------0---||
|-!0---------------0-|-!0---------------0-||
|--------------------|-!2-----------------||
|--------------------|-!3-----------------||


 Verse
  Dm                  G
  E E E S S E E E E   E E E S S E E E E
  | | | | | | | | |   | | | | | | | | |
  / / / / / / / / /   / / / / / / / / /

  E E E S S E E E E   E E E S S E E E E
|-1-1-1-1-1-1-1-1-1-|-3-3-3-3-3-3-3-3-3-|
|-3-3-3-3-3-3-3-3-3-|-3-3-3-3-3-3-3-3-3-|
|-2-2-2-2-2-2-2-2-2-|-0-0-0-0-0-0-0-0-0-|
|-0-0-0-0-0-0-0-0-0-|-0-0-0-0-0-0-0-0-0-|
|-------------------|-2-2-2-2-2-2-2-2-2-|
|-------------------|-3-3-3-3-3-3-3-3-3-|


  Dm                  G
  E E E S S E E E E   E E E S S E E E E
  | | | | | | | | |   | | | | | | | | |
  / / / / / / / / /   / / / / / / / / /

  E E E S S E E E E   E E E S S E E E E
|-1-1-1-1-1-1-1-1-1-|-3-3-3-3-3-3-3-3-3-|
|-3-3-3-3-3-3-3-3-3-|-3-3-3-3-3-3-3-3-3-|
|-2-2-2-2-2-2-2-2-2-|-0-0-0-0-0-0-0-0-0-|
|-0-0-0-0-0-0-0-0-0-|-0-0-0-0-0-0-0-0-0-|
|-------------------|-2-2-2-2-2-2-2-2-2-|
|-------------------|-3-3-3-3-3-3-3-3-3-|


  Dm                  G
  E E E S S E E E E   E E E S S E E E E
  | | | | | | | | |   | | | | | | | | |
  / / / / / / / / /   / / / / / / / / /

  E E E S S E E E E   E E E S S E E E E
|-1-1-1-1-1-1-1-1-1-|-3-3-3-3-3-3-3-3-3-|
|-3-3-3-3-3-3-3-3-3-|-3-3-3-3-3-3-3-3-3-|
|-2-2-2-2-2-2-2-2-2-|-0-0-0-0-0-0-0-0-0-|
|-0-0-0-0-0-0-0-0-0-|-0-0-0-0-0-0-0-0-0-|
|-------------------|-2-2-2-2-2-2-2-2-2-|
|-------------------|-3-3-3-3-3-3-3-3-3-|


                            D.S. al Coda
  Dm                  G
  E E E S S E E E E   E E E S S E E E E
  | | | | | | | | |   | | | | | | | | |
  / / / / / / / / /   / / / / / / / / /

  E E E S S E E E E   E E E S S E E E E
|-1-1-1-1-1-1-1-1-1-|-3-3-3-3-3-3-3-3-3---||
|-3-3-3-3-3-3-3-3-3-|-3-3-3-3-3-3-3-3-3---||
|-2-2-2-2-2-2-2-2-2-|-0-0-0-0-0-0-0-0-0---||
|-0-0-0-0-0-0-0-0-0-|-0-0-0-0-0-0-0-0-0---||
|-------------------|-2-2-2-2-2-2-2-2-2---||
|-------------------|-3-3-3-3-3-3-3-3-3---||


 Bridge
  &
  Dm        G             Dm        G             Dm        G
  E E E S S E   E E   E   E E E S S E   E E   E   E E E S S E   E E   E
  | | | | | |   | |   |   | | | | | |   | |   |   | | | | | |   | |   |
  / / / / / /   / /   /   / / / / / /   / /   /   / / / / / /   / /   /

  E E E S S S S E S S E   E E E S S S S E S S E   E E E S S S S E S S E
|-1-1-1-1-1-3-3-3-3-3-3-|-1-1-1-1-1-3-3-3-3-3-3-|-1-1-1-1-1-3-3-3-3-3-3-|
|-3-3-3-3-3-3-3-3-3-3-3-|-3-3-3-3-3-3-3-3-3-3-3-|-3-3-3-3-3-3-3-3-3-3-3-|
|-2-2-2-2-2-0-0-0-0-0-0-|-2-2-2-2-2-0-0-0-0-0-0-|-2-2-2-2-2-0-0-0-0-0-0-|
|-0-0-0-0-0-0-0-0-0-0-0-|-0-0-0-0-0-0-0-0-0-0-0-|-0-0-0-0-0-0-0-0-0-0-0-|
|-----------2-2-2-2-2-2-|-----------2-2-2-2-2-2-|-----------2-2-2-2-2-2-|
|-----------3-3-3-3-3-3-|-----------3-3-3-3-3-3-|-----------3-3-3-3-3-3-|


  D                         Fmaj7/C
  E E E S S E E   E   E     E E   E   S S E E   E   E
  | | | | | | |   |   |     | |   |   | | | |   |   |
  / / / / / / /   /   /     / /   /   / / / /   /   /

  E E E E   E S S S S S S   E S S S S S S E S S S S S S
|-2-2-2-2---3-2-2-0-2-2-2-|-0-0-0-0-0-0-0-0-0-0-0-0-0-0--|
|-3-3-3-3---3-3-3-3-3-3-3-|-1-1-1-1-1-1-1-1-1-1-1-1-1-1--|
|-2-2-2-2---2-2-2-2-2-2-2-|-2-2-2-2-2-2-2-0-2-2-0-2-2-2--|
|-0-0-0-0---0-0-0-0-0-0-0-|-3-3-3-3-3-3-3-3-3-3-3-3-3-3--|
|-------------------------|-3-3-3-3-3-3-3-3-3-3-3-3-3-3--|
|-------------------------|------------------------------|


  G                   Gadd4
  E E E S S E E E E   E E E S S E E E   E
  | | | | | | | | |   | | | | | | | |   |
  / / / / / / / / /   / / / / / / / /   /

  E E E S S E E E E   E E E S S E E S S S S
|-3-3-3-3-3-3-3-3-3-|-3-3-3-3-3-3-3-3-3-3-3-||
|-3-3-3-3-3-3-3-3-3-|-1-1-1-1-1-1-1-1-1-1-1-||
|-0-0-0-0-0-0-0-0-0-|-0-0-0-0-0-0-0-0-0-0-0-||
|-0-0-0-0-0-0-0-0-0-|-0-0-0-0-0-0-0-0-0-0-0-||
|-2-2-2-2-2-2-2-2-2-|-2-2-2-2-2-2-2-2-2-2-2-||
|-3-3-3-3-3-3-3-3-3-|-3-3-3-3-3-3-3-3-3-3-3-||


 Out-Chorus
  C           Cadd2/B
  E E   E S S E E   E   E
  | |   | | | | |   |   |
  / /   / / / / /   /   /

  E S S E S S E S S S S S S
|-0-0-0-0-0-0-0-0-0-0-0-0-0-|
|-1-1-1-1-1-1-1-1-1-1-1-1-1-|
|-0-0-0-0-0-0-0-0-0-0-0-0-0-|
|-2-2-2-2-2-2-0-0-0-0-0-0-0-|
|-3-3-3-3-3-3-2-2-2-2-2-2-2-|
|---------------------------|


  Am            Bb            F           G
  E E   E   S S E E E   E     E E E   S S E E E   E
  | |   |   | | | | |   |     | | |   | | | | |   |
  / /   /   / / / / /   /     / / /   / / / / /   /

  E S S S S S S E E S S S S   E E S S S S E E S S S S
|-0-0-0-0-0-0-0-1-1-1-1-1-1-|-1-1-1-1-1-1-3-3-3-3-3-3--|
|-1-1-1-1-1-1-1-3-3-3-3-3-3-|-1-1-1-1-1-1-3-3-3-3-3-3--|
|-2-2-2-2-2-2-2-3-3-3-3-3-3-|-2-2-2-2-2-2-0-0-0-0-0-0--|
|-2-2-2-2-2-2-2-3-3-3-3-3-3-|-3-3-3-3-3-3-0-0-0-0-0-0--|
|-0-0-0-0-0-0-0-1-1-1-1-1-1-|-3-3-3-3-3-3-2-2-2-2-2-2--|
|---------------------------|-1-1-1-1-1-1-3-3-3-3-3-3--|


  Am          Fmaj7/C   C           Cadd2/B         Am            Bb
  E E E   S S E E E E   E E   E S S E E   E   E     E E   E   S S E E E   E
  | | |   | | | | | |   | |   | | | | |   |   |     | |   |   | | | | |   |
  / / /   / / / / / /   / /   / / / / /   /   /     / /   /   / / / / /   /

  E E S S E   E E E E   E S S E S S E S S S S S S   E S S S S S S E E S S S S
|-0-0-0-0-0---0-0-0-0-|-0-0-0-0-0-0-0-0-0-0-0-0-0-|-0-0-0-0-0-0-0-1-1-1-1-1-1--|
|-1-1-1-1-1---1-1-1-1-|-1-1-1-1-1-1-1-1-1-1-1-1-1-|-1-1-1-1-1-1-1-3-3-3-3-3-3--|
|-2-2-2-2-2---2-2-2-2-|-0-0-0-0-0-0-0-0-0-0-0-0-0-|-2-2-2-2-2-2-2-3-3-3-3-3-3--|
|-2-2-2-2-2---3-3-3-3-|-2-2-2-2-2-2-0-0-0-0-0-0-0-|-2-2-2-2-2-2-2-3-3-3-3-3-3--|
|-0-0-0-0-0---3-3-3-3-|-3-3-3-3-3-3-2-2-2-2-2-2-2-|-0-0-0-0-0-0-0-1-1-1-1-1-1--|
|---------------------|---------------------------|----------------------------|


  F           G             Am          G
  E E E   S S E E E   E     E E E   S S E E E E
  | | |   | | | | |   |     | | |   | | | | | |
  / / /   / / / / /   /     / / /   / / / / / /

  E E S S S S E E S S S S   E E S S E   E E E E
|-1-1-1-1-1-1-3-3-3-3-3-3-|-0-0-0-0-0---3-3-3-3-|
|-1-1-1-1-1-1-3-3-3-3-3-3-|-1-1-1-1-1---3-3-3-3-|
|-2-2-2-2-2-2-0-0-0-0-0-0-|-2-2-2-2-2---0-0-0-0-|
|-3-3-3-3-3-3-0-0-0-0-0-0-|-2-2-2-2-2---0-0-0-0-|
|-3-3-3-3-3-3-2-2-2-2-2-2-|-0-0-0-0-0---2-2-2-2-|
|-1-1-1-1-1-1-3-3-3-3-3-3-|-------------3-3-3-3-|


 Outro
  Dm        G             Dm        G             Dm        G
  E E E S S E   E E   E   E E E S S E   E E   E   E E E S S E   E E   E
  | | | | | |   | |   |   | | | | | |   | |   |   | | | | | |   | |   |
  / / / / / /   / /   /   / / / / / /   / /   /   / / / / / /   / /   /

  E E E S S S S E S S E   E E E S S S S E S S E   E E E S S S S E S S E
|-1-1-1-1-1-3-3-3-3-3-3-|-1-1-1-1-1-3-3-3-3-3-3-|-1-1-1-1-1-3-3-3-3-3-3-|
|-3-3-3-3-3-3-3-3-3-3-3-|-3-3-3-3-3-3-3-3-3-3-3-|-3-3-3-3-3-3-3-3-3-3-3-|
|-2-2-2-2-2-0-0-0-0-0-0-|-2-2-2-2-2-0-0-0-0-0-0-|-2-2-2-2-2-0-0-0-0-0-0-|
|-0-0-0-0-0-0-0-0-0-0-0-|-0-0-0-0-0-0-0-0-0-0-0-|-0-0-0-0-0-0-0-0-0-0-0-|
|-----------2-2-2-2-2-2-|-----------2-2-2-2-2-2-|-----------2-2-2-2-2-2-|
|-----------3-3-3-3-3-3-|-----------3-3-3-3-3-3-|-----------3-3-3-3-3-3-|


                H.=H
  Dm        G
  E E E S S E E  Q    +W
  | | | | | | |  |     |
  / / / / / / /  /     /

  E E E S S E E  Q    +W
|-1-1-1-1-1-3-3-!3--|-(3)----|
|-3-3-3-3-3-3-3-!3--|-(3)----|
|-2-2-2-2-2-0-0-!0--|-(0)----|
|-0-0-0-0-0-0-0-!0--|-(0)----|
|-----------2-2-!2--|-(2)----|
|-----------3-3-!3--|-(3)----|


  C
   W          +W
   |           |
   /           /

   W          +W
|-!0--------|-(0)----*|
|-!1--------|-(1)----*|
|-!0--------|-(0)----*|
|-!2--------|-(2)----*|
|-!3--------|-(3)----*|
|-----------|--------*|


Duration Legend
---------------
W - whole; H - half; Q - quarter; E - 8th; S - 16th; T - 32nd; X - 64th; a - acciaccatura
+ - note tied to previous; . - note dotted; .. - note double dotted
Uncapitalized letters represent notes that are staccato (1/2 duration)
Irregular groupings are notated above the duration line
Duration letters will always appear directly above the note/fret number it represents the
duration for.  Duration letters with no fret number below them represent rests.  Multi-
bar rests are notated in the form Wxn, where n is the number of bars to rest for.  Low
melody durations appear below the staff

Tablature Legend
----------------
 h   - hammer-on
 p   - pull-off
 b   - bend
 pb  - pre-bend
 r   - bend release (if no number after the r, then release immediately)
 /\  - slide into or out of (from/to "nowhere")
 s   - legato slide
 S   - shift slide
  - natural harmonic
[n]  - artificial harmonic
n(n) - tapped harmonic
 ~   - vibrato
 tr  - trill
 T   - tap
 TP  - trem. picking
 PM  - palm muting
\n/  - tremolo bar dip; n = amount to dip
 \n  - tremolo bar down
 n/  - tremolo bar up
/n\  - tremolo bar inverted dip
 =   - hold bend; also acts as connecting device for hammers/pulls
 <>  - volume swell (louder/softer)
 x   - on rhythm slash represents muted slash
 o   - on rhythm slash represents single note slash

Misc Legend
-----------
 |  - bar
||  - double bar
||o - repeat start
o|| - repeat end
*|  - double bar (ending)
 :  - bar (freetime)
 $  - Segno
 &  - Coda
Tempo markers -  = BPM(8/16=s8/s16), where s8 = swing 8ths, s16 = swing 16ths
Tap to rate this tab
# A B C D E F G H I J K L M N O P Q R S T U V W X Y Z