Guitaretab - guitar tabs
Song name
# A B C D E F G H I J K L M N O P Q R S T U V W X Y Z

Oasis - Keep The Dream Alive tab

ok, i tabbed this great song from oasis, cause i coudnt find a decent tab anywhere
i think its correct.
BTW, i tabbed it on an accoustic guitar..

Song: Keep The Dream Alive
Artist: Oasis
Album: Dont Believe The Truth
Tabbed By: Jeremy (engelmitknarre@hotmail.com) comments and suggestions please!

i recommend the chords ver 3 by Christoffer Wessman

VERSE

Four seasons, seconds, flicker and flash Iím alone
A lonely scream provides the scene, itís no home
Every night I hear you scream
But you donít say what you mean
this was my dream but now my dream is flown

Im at the crossroads waiting for a sign
My life is standing stilll but Iím still alive
Every night I think I know
in the morning where did it go
The answers disappear when I open my eyes

CHORUS

Iím no stranger to this place
Where real life and dreams colide
and even though i fall from grace
I will keep the dream alive
I will keep the dream alive
E----------------------------------------------|
B----------------------------12----------------|
G----8---9---8---9---8---9---------------------|                            x7
D----------------------------------------------|
A----------------------------------------------|
E----------------------------------------------|

E----------------------------------------------|
B------------12--------------------------------|
G----8---9-------------------------------------|                            x2
D----------------------------------------------|
A----------------------------------------------|
E----------------------------------------------|

VERSE

Four seasons, seconds, flicker and flash Iím alone
A lonely scream provides the scene, itís no home
Every night I hear you scream
But you donít say what you mean
this was my dream but now my dream is flown

CHORUS

Iím no stranger to this place
Where real life and dreams colide
and even though i fall from grace
I will keep the dream alive
I will keep the dream alive

E----------------------------------------------------|
B----------------------------------------------------|
G----11---13---11---13---14---14---14---14---13---11-|                                   x2
D----------------------------------------------------|
A----------------------------------------------------|
E----------------------------------------------------|

[ Tab from: http://www.guitaretab.com/o/oasis/58949.html ]
E---------------------------------------------------------|
B------------------------------------------------------12-|
G----11---13---11---13---14---14---14---14---13---11------|                              x2
D---------------------------------------------------------|
A---------------------------------------------------------|
E---------------------------------------------------------|


E--------------------------------------------------------------|
B-----------------------------14----------------------------12-|
G----11---13---11---13---14--------14---14---14---13---11------|                         x2
D--------------------------------------------------------------|
A--------------------------------------------------------------|
E--------------------------------------------------------------|


E------------------------------------------------------------------------|
B-----------------------------14----------------------------14---12---14-|
G----11---13---11---13---14--------14---14---14---13---11----------------|
D------------------------------------------------------------------------|
A------------------------------------------------------------------------|
E------------------------------------------------------------------------|
                                                                                        x1
E------------------------------------------------------------------------|
B-----------------------------------------------------------12-----------|
G----13---11---13---11---13---14---14---14---14---13---11----------------|
D------------------------------------------------------------------------|
A------------------------------------------------------------------------|
E------------------------------------------------------------------------|


noel starts singing:

na na na na na na na
na na na na na na na
na na na na na na na
na na na na na na na

after that its like this:

E------------------------------------------------------------------------|
B----14---12--------14---12---12---14---14---12--------14---12-----------|
G--------------11---------------------------------11---------------------|               x4
D------------------------------------------------------------------------|
A------------------------------------------------------------------------|
E------------------------------------------------------------------------|

closing note: B---14-----

comments or suggestions @   engelmitknarre@hotmail.com
Related for Keep The Dream Alive tab