Song name
# A B C D E F G H I J K L M N O P Q R S T U V W X Y Z

Oasis - Importance Of Being Idle tab

Louis Antoniou

                 The Importance of Being Idle- solo

              by Louis Antoniou

e|-------------------|
b|--------3-5-3-1----|
g|----2-0--------2---|
d|-------------------|
a|-----0-------------|
E|-------------------|

e|----8-7-5-------5---------|
b|----------8-5--8-8-5------|
g|--------------------8~-9~-|
d|--------------------------|  repeat those 2 bars again then...
a|--------------------------|
E|--------------------------|


e|------------------------------------------15------------------|
b|----15~-15~15-13--13-15~-15~-15-13--13-15~--15~-13--13~-12~-5-|
g|----------------14----------------14--------------14----------|
d|--------------------------------------------------------------|
a|--------------------------------------------------------------|
E|--------------------------------------------------------------|

e|------------------------15-------------------12-12-12-12-12-12-12--|
b|----15~-15~-15-13-13-15~--15-13--13--15--12------------------------|
g|-----------------14------------14----------------------------------|
d|-------------------------------------------------------------------|
a|-------------------------------------------------------------------|
E|-------------------------------------------------------------------|


       cheers, Louis Antoniou
Tap to rate this tab
# A B C D E F G H I J K L M N O P Q R S T U V W X Y Z