Guitaretab - guitar tabs
Song name
# A B C D E F G H I J K L M N O P Q R S T U V W X Y Z

Oasis - Turn Up The Sun tab

Lead guitar intro, chords strummed by Gem at the same time.
E|-----0----0----0----0----0----0----0----0----0----0----0----0----0----0----0----0-|
B|--15---15---14---14---12---12---15---15---14---14---12---12-------------12---12---|
G|--------------------------------------------------------------14---14-------------|
D|----------------------------------------------------------------------------------|
A|----------------------------------------------------------------------------------|
E|----------------------------------------------------------------------------------|
[ Tab from: http://www.guitaretab.com/o/oasis/59635.html ]
E|-----0----0----0----0----0----0----0----0----0----0----0----0----0----0----0----0-|
B|--13---13---12---12-------------13---13---12---12---------------------------------|
G|----------------------14---14-----------------------14---14---12---12---12---12---|
D|----------------------------------------------------------------------------------|
A|----------------------------------------------------------------------------------|
E|----------------------------------------------------------------------------------|

E|-----0----0----0----0----0----0----0----0----0----0----0----0----0----0----0----0-|
B|--12---12-------------------------------------------------------------------------|
G|------------14---14---12---12---11---11-------------11---11---12---12---14---14---|
D|------------------------------------------14---14---------------------------------|
A|----------------------------------------------------------------------------------|
E|----------------------------------------------------------------------------------|

E|-----0----0----0----0----0----0----0----0-|
B|--12---12-------------12---12---14---14---|
G|------------14---14-----------------------|
D|------------------------------------------|
A|------------------------------------------|
E|------------------------------------------|

This is also used through out the solo and outro.
Related for Turn Up The Sun tab
Advertisement will be closed in 10 seconds