Guitaretab - guitar tabs
Song name
# A B C D E F G H I J K L M N O P Q R S T U V W X Y Z

Oasis - Lord Dont Slow Me Down tab

Title: Lord Don't Slow Me Down
Artist: Oasis
Album: Dig Out Your Soul (Bonus Disc)

Tempo: 133 bpm

Note: Capo 2nd fret

Chords:
E5 (022xxx)
Dsus2 (x00230)
A/E (002220)
A5 (577xxx)
B5 (799xxx)
G (3x0033)
A (x02220)
Asus2 (x02200)

Intro:
  E5                                 Dsus2/A A/E
E|------------------------|------------------------|
B|------------------------|------------3---3-2-----|
G|------------------------|------------2---2-2-----|
D|2-----2-----2---2-0---2-|2-----2---0-0---0-2---0-|
A|2-----2-----2---2-0---2-|2-----2---0-0---0-0---0-|
E|0-----0-----0---0-0---0-|0-----0---0-------0---0-|    X8

Verse 1:
E5
Iím tired and Iím sick
Got a habit that I just canít kick
(I) Feel hungover and Iím all in love
When the lights go down
Iím gonna shoot Ďem all

A5
Síalrite
Donít be afraid
    E5
You gotta keep dreaming in the bed you made
          B5
And if it tastes like shit
         A5                           E5
Well, it beats sleeping rough on the floor

Drum Break:
  E5                                 Dsus2/A A/E
E|------------------------|------------------------|
B|------------------------|------------3---3-2-----|
G|------------------------|------------2---2-2-----|
D|2-----2-----2---2-0---2-|2-----2---0-0---0-2---0-|
A|2-----2-----2---2-0---2-|2-----2---0-0---0-0---0-|
E|0-----0-----0---0-0---0-|0-----0---0-------0---0-|
  E5
E|------------------------|------------------------|
B|------------------------|------------------------|
G|------------------------|------------------------|
D|2-----------------------|------------------------|
A|2-----------------------|------------------------|
E|0-----------------------|------------------------|
  
E|0-----0-----0-----0-----|0-----0-----0-----0-----|
B|0-----0-----0-----0-----|0-----0-----0-----0-----|
G|3-----3-----3-----3-----|2-----2-----2-----2-----|
D|2-----2-----2-----2-----|2-----2-----2-----2-----|
A|------------------------|------------------------|
E|------------------------|------------------------|

Chorus:
A5                                           E5                                            
Keep saying that my headís locked up in the clouds
  E5
E|------------------------|------------------------|
B|0-----0-----0---0-0---0-|0-----0-----0---0-0-----|
G|4-----4-----4---4-4---4-|3-----3-----3---3-3---0-|
D|2-----2-----2---2-2---2-|2-----2-----2---2-2---0-|
A|------------------------|------------------------|
E|------------------------|------------------------|
A5                                        B5
Keep praying that the lord wonít slow me down

Verse 2:
Iím tired and Iím sick
Got a habit that I canít, wonít lick
Feel hungover and Iím all in love
Let the lights go down
                  G A           E5
Me and you are gonna shoot 'em all
[ Tab from: http://www.guitaretab.com/o/oasis/81031.html ]
Solo:
  E5
E|------------------------|------------------------|
B|------------------------|------------------------|
G|------------------------|------------------------|
D|2-----2-----------0---2-|2-----2-----2-0---0---2-|
A|2-----2-----0-2-2-------|2-----2---------2-------|
E|0-----0-----------------|0-----0-----------------|    X4
  A5
E|------------------------|------------------------|
B|------------------------|------------------------|
G|2-----2-----------0---2-|2-----2-----2-0---0---2-|
D|2-----2-----0-2-2-------|2-----2---------2-------|
A|0-----0-----------------|0-----0-----------------|
E|------------------------|------------------------|
  E5
E|------------------------|------------------------|
B|------------------------|------------------------|
G|------------------------|------------------------|
D|2-----2-----------0---2-|2-----2-----2-0---0---2-|
A|2-----2-----0-2-2-------|2-----2---------2-------|
E|0-----0-----------------|0-----0-----------------|
  B5                       A5
E|------9-----9-----------|------5-----5-----------|
B|------12b14-12b14-------|------10b12-10b12~------|
G|------------------------|------------------------|
D|9---0-------------------|7---0-------------------|
A|9---0-------------------|7---0-------------------|
E|7---0-------------------|5---0-------------------|
  E5
E|------------------------|------------------------||
B|------------------------|------------------------||
G|------------------------|------------------------||
D|------------------0---2-|------------2-0---0---2-||
A|------------0-2-2-------|----------------2-------||
E|0-----0-----------------|0-----0-----------------||

Chorus:                                      
Keep saying that my headís locked up in the clouds
A5                                        B5    Asus2
Keep praying that the lord wonít slow me down

Verse 3:
Iím tired and Iím sick
Got a habit that I just canít kick
(I) Feel hungover and Iím all in love
When the lights go down
                  G A           E5
Me and you are gonna shoot 'em all

Outro:
  E5
E|------------------------|------------------------|
B|------------------------|------------------------|
G|------------------------|------------------------|
D|2-----2-----------0---2-|2-----2-----2-0---0---2-|
A|2-----2-----0-2-2-------|2-----2---------2-------|
E|0-----0-----------------|0-----0-----------------|    X4

E|0-----0-----0-----0-----|0-----0-----0-----0-----|
B|0-----0-----0-----0-----|0-----0-----0-----0-----|
G|1-----1-----1-----1-----|2-----2-----2-----2-----|
D|2-----2-----2-----2-----|3-----3-----3-----3-----|
A|2-----2-----2-----2-----|3-----3-----3-----3-----|
E|------------------------|------------------------|

E|0-----0-----0-----0-----|0-----0-----0-----0-----|
B|0-----0-----0-----0-----|0-----0-----0-----0-----|
G|3-----3-----3-----3-----|4-----4-----4-----4-----|
D|4-----4-----4-----4-----|5-----5-----5-----5-----|
A|4-----4-----4-----4-----|5-----5-----5-----5-----|
E|------------------------|------------------------|

E|0-----0-----0-----0-----|0-----0-----0-----0-----|
B|0-----0-----0-----0-----|0-----0-----0-----0-----|
G|5-----5-----5-----5-----|6-----6-----6-----6-----|
D|6-----6-----6-----6-----|7-----7-----7-----7-----|
A|6-----6-----6-----6-----|7-----7-----7-----7-----|
E|------------------------|------------------------|

E|0-----0-----0-----0-----|0-----0-----------------|
B|0-----0-----0-----0-----|0-----0-----------------|
G|7-----7-----7-----7-----|8-----9-----10/---------|
D|8-----8-----8-----8-----|9-----10----11/---------|
A|8-----8-----8-----8-----|9-----10----11/---------|
E|------------------------|------------------------|

E|0-----------------------||
B|0-----------------------||
G|1-----------------------||
D|2-----------------------||
A|2-----------------------||
E|0-----------------------||



Related for Lord Dont Slow Me Down tab