Song name
# A B C D E F G H I J K L M N O P Q R S T U V W X Y Z

Oasis - Cast No Shadow Remix tab

Intro
|--0-0-0-0-3---2-|    |-0-0-0-0-3---2------|
|--3-3-3-3-0-0---|    |-1-1-1-1-0-0--------|
|--2-2-2-2-0-----|    |-0-0-0-0-0----------|
|--2-2-2-2-0-----|    |-2-2-2-2-0----------|
|--0-0-0-0-2-----|    |-3-3-3-3-2----------|
|--0-0-0-0-3-----| x2 |-0-0-0-0-3----------| x2
Main Riff (repeat throughout the entire song)

|--0-0-0-0-3---2-|    |-0-0-0-0-3---2------|
|--3-3-3-3-0-0---|    |-1-1-1-1-0-0--------|
|--2-2-2-2-0-----|    |-0-0-0-0-0----------|
|--2-2-2-2-0-----|    |-2-2-2-2-0----------|
|--0-0-0-0-2-----|    |-3-3-3-3-2----------|
|--0-0-0-0-3-----|    |-0-0-0-0-3----------|
|
Tap to rate this tab
# A B C D E F G H I J K L M N O P Q R S T U V W X Y Z