Song name
# A B C D E F G H I J K L M N O P Q R S T U V W X Y Z

Oasis - Importance Of Being Idol tab

i dont know if this is right but if you have any problems with it just email me at
rvolvinworldman@comcast.net!!!

b=bend
h=hammer


e-----------------------------------------------------------------------------|e
b-----------------------------------------------------------------------------|b
g--------------------------17-16-14-12-------12-14-12-------------------------|g
d----------12-14-12--------------------14-14----------13-13h14-14-------------|d
a-----12-12--------15-12-12---------------------------------------------------|a
E-----------------------------------------------------------------------------|E


e-----------------------------------------------------------------------------|e
b-----------------------------------------------------------------------------|b
g--------------------------17-16-14-12-------12-14-12-------------------------|g
d----------12-14-12--------------------14-14----------13-13h14-14-------------|d
a-----12-12--------15-12-12---------------------------------------------------|a
E-----------------------------------------------------------------------------|E


e-------------------------------------------------15--------------------------|e
b----16b17-16b17----------16b17-16b17----------16b17b16-----------------------|b
g----------------17-14-17-------------17-14-17----------17-14-17-16-16-17-----|g
d-----------------------------------------------------------------------------|d
a-----------------------------------------------------------------------------|a
E-----------------------------------------------------------------------------|E

e----------------------------15-----------------------------------------------|e
b----16b17-16b17----------16b17b16--------------------------------------------|b
g----------------17-14-17----------17-14-17--16--17---------------------------|g
d--------------------------------------------------------------22222222-------|d
a--------------------------------------------------------------22222222-------|a
E--------------------------------------------------------------00000000-------|E
Tap to rate this tab
# A B C D E F G H I J K L M N O P Q R S T U V W X Y Z