Song name
# A B C D E F G H I J K L M N O P Q R S T U V W X Y Z

Oathbreaker - Maelstrom tab

-------------------------------------------------------------------------------
                             Mælstrøm - Oathbreaker
-------------------------------------------------------------------------------
Tabbed by:  Derek Miller
E-mail:  millerderekscott@gmail.com
Official Band Site:  http://www.deathwishinc.com/bands/128/

Tuning:  Drop D (DADGBE)



Main riff Guitar 1
E|--------------------------------------|
B|--------------------------------------|
G|--------1--------1--------1-----5-----| x3
D|-----2--------2--------2-----------2--|
A|-----------------------------3--------|
D|--0--------0--------0-----------------|

E|--------------------------------------|
B|--------------------------------------|
G|-----------4-----------------3--------|
D|-----3--------3--------1--------1-----|
A|--3-----3--------3--2-----2--------2--|
D|--------------------------------------|

Main riff Guitar 2

E|-----5-----5-----6--5-----5-----5--------------8--------|
B|--6-----6-----6--------6-----6-----6-----6--------6-----|
G|--------------------------------------6-----6--------6--| x3
D|--------------------------------------------------------|
A|--------------------------------------------------------|
D|--------------------------------------------------------|

E|-----------7-----------------6--------|
B|-----5--------5--------4--------4-----|
G|--5-----5--------5--4-----4--------4--|
D|--------------------------------------|
A|--------------------------------------|
D|--------------------------------------|

Break Guitar 1

E|-----
B|-----
G|----- x1
D|--3--
A|--5--
D|--0--

Break Guitar 2

E|--------5--|
B|-----6-----|
G|-----------| x7
D|-----------|
A|-----------|
D|--0--------|

Riff 2 Guitar 1
E|--------------------------------------------------|
B|--------------------------------------------------|
G|--------------------------------------------------|
D|-----3--3-----3--3-----3--3-----3--3-----3--3-----|
A|-----5--5-----5--5-----5--5-----5--5-----5--5-----|
D|--0--------0--------7--------7--------3--------5--|

Riff 2 Guitar 2
E|--5--8--5--10--3--5--------|
B|---------------------6--5--|
G|---------------------------|
D|---------------------------|
A|---------------------------|
D|---------------------------|

Riff 3 Guitar 2
E|------13--12--13------12--11--12------10--9--10------8--7--8--|
B|--10--------------10--------------10-------------10-----------|
G|--------------------------------------------------------------|
D|--------------------------------------------------------------|
A|--------------------------------------------------------------|
D|--------------------------------------------------------------|

End Guitar 1
E|-----
B|-----
G|-----
D|--3--
A|--5--
D|--0--

End Guitar 2
E|--5--
B|-----
G|-----
D|-----
A|-----
D|-----
Tap to rate this tab
 
# A B C D E F G H I J K L M N O P Q R S T U V W X Y Z