Song name
# A B C D E F G H I J K L M N O P Q R S T U V W X Y Z

Oatmeal Dog - Sleep The Day Away tab

Sleep the day away
Oatmeal Dog

drop d


intro
--------------------------------------------------------------|
--------------------------------------------------------------|
--------------------------------------------------------------|
0---3232--0---3232--332-0007-00-00-323-0007-0000-32-----------|
0---3232--0---3232--332-0007-00-00-323-0007-0000-32-----------|
0---3232--0---3232--332-0007-00-00-323-0007-0000-32-----------|

--------------------------------------------------------------|
--------------------------------------------------------------|
--------------------------------------------------------------|
0007-00-00-323-32-3-32----------------------------------------|
0007-00-00-323-32-3-32----------------------------------------|
0007-00-00-323-32-3-32----------------------------------------|sleep the day away...

other part

--------------------------------------------------------------|
--------------------------------------------------------------|
--------------------------------------------------------------|
0007-00-00-323-32-3-32----------------------------------------|
0007-00-00-323-32-3-32----------------------------------------|
0007-00-00-323-32-3-32----------------------------------------|


Here is the end heavy part.... use palm muting on the opens!!!
--------------------------------------------------------------|
--------------------------------------------------------------|
--------------------------------------------------------------|
0000-0000-0000-0000-3-323-------------------------------------|
0000-0000-0000-0000-3-323-------------------------------------|
0000-0000-0000-0000-3-323-------------------------------------|


thats about it

-kingoat
Tap to rate this tab
# A B C D E F G H I J K L M N O P Q R S T U V W X Y Z