Guitaretab - guitar tabs
Song name
# A B C D E F G H I J K L M N O P Q R S T U V W X Y Z

Oatmeal Dog - Pissed Off tab

Pissed Off - Tab
Oatmeal Dog


Drop D
(Chorus effect pedal)

----------------------------------------------------------------------------|
----------------------------------------------------------------------------|
----------------------------------------------------------------------------|
-------------------------------0----0---------------------------5-----------|
-33------------------33------0----0---0---33-----------------33-------------|
----5350-0-30355-35-----5350-----------------5350-0-30355-35------035-0-----|
"SO TIRED OF IT!"

that is the opening riff for pissed off..


tHE RESt Of IT is LIke THis....(play it with distortion)

------------------------------------|
------------------------------------|
-33--------------------33-----------|
-33-5350-0-30355-35- --33-5350------|
-33-5350-0-30355-35- --33-5350------|
----5350-0-30355-35-------5350------|
[ Tab from: http://www.guitaretab.com/o/oatmeal-dog/42454.html ]
------------------------------------|
------------------------------------|
-33--------------------33-5---------|
-33-5350-0-30355-35- --33-5-0350----|

-33-5350-0-30355-35- --33-3-0350----|
----5350-0-30355-35---------0350----|

The lyrics go like this...(play this with distortion and palm muting)

-----------------------------------------------------------|
-----------------------------------------------------------|
-----------------------------------------------------------|
-00000000-00000000-00000000-33333555-----------------------|
-00000000-00000000-00000000-33333555-----------------------|
-00000000-00000000-00000000-33333555-----------------------|

Repeated back and forth until the change which goes like this... (distortion, no drums)

-------------------------------------------------|
-------------------------------------------------|
-------------------------------------------------|
--00303553-00303553-00303553-003035-5------------|
--00303553-00303553-00303553-003035-5------------|
--00303553-00303553-00303553-003035-5------------|

Its that easy.  If you can't play that then you suck and shouldn't be playing guitar


-KingOat
Related for Pissed Off tab
Pissed Off chords by Oatmeal Dog