Song name
# A B C D E F G H I J K L M N O P Q R S T U V W X Y Z

Obey - Moonlight tab

sorry guys but did not feel like putting the whole song on here
i do it later
..........................................................................


..........................................................................
E]-------------------------------|
B]------------0------------------|
G]----0------0-0-----0------0----| x3
D]---2-2----5---5---0-0----0-0---|
A]--2---2--3-----3-2---2--7---7--|
E]-0--------------3------5-----5-|
..........................................................................
E]------------------------------------|
B]------------------------------------|
G]-------0-----------0----------0-----| x1
D]------0-0---------0-0--------0-0----|
A]----10--10------12---12----12---12--|
E]-0-8------0-0-10------10-10---------|
..........................................................................
E]---------------------------------------|
B]---------------------------------------|
G]---0---0-----0---0-----0---0-----0---0-| x3
D]--9-9-9-----7-7-7-----4-4-4-----5-5-5--|
A]-7---7---0-5---5---0-2---2---0-3---3---|
E]---------------------------------------|
..........................................................................
Tap to rate this tab
# A B C D E F G H I J K L M N O P Q R S T U V W X Y Z