Song name
# A B C D E F G H I J K L M N O P Q R S T U V W X Y Z

Obituary - Dying tab

                                 OBITUARY - DYING    
                          From the Album CAUSE OF DEATH
                        Copyright ROADRUNNER RECORDS 1991
                            Version 1.1 April 13, 2002


Transcribed by:James Williams (Inverted)

For Questions, Comments, Newest Version, or Corrections contact
Inverted: at Inverted_one@hotmail.com

Check Out Death8699.com or Metaltabs.com for More Transcriptions:
http://www.Death8699.com http://www.Metaltabs.com

.  - palm mute           /  - slide up to
\  - slide down to       ~  - vibrato
h  - hammer on           b  - bend
p  - pull off            Suffixes for bend ^
ph - pinched harmonic     f - full bend    h - half bend
*  - see comment          r - release      t - tap bend
X  - Stuccatto            ~ - vibrato bend q - quarter bend
,  - slight palm mute    () - ghost note, sustained note
"  - Tromolo note        <> - Trill

Tuning: "D"G"C"F"A"D" 

Riff 1-A                                                x3
|---------------------------------------------------------|
|---------------------------------------------------------|
|---------------------------------------------------------|
|--4------------------------------------------------------|
|--2----------3-------------------------------------------|
|-----0-0-0-0-1--0-0-0-0-6-4-3-0-6-4-3-0-6-4-3-0-6-4-3-0--|
      . . . .    . . . . . . . . . . . . . . . . . . . .

Riff 1-B                                                x1
|---------------------------------------------------------|
|---------------------------------------------------------|
|---------------------------------------------------------|
|--4------------------------------------------------------|
|--2----------3-------------------------------------------|
|-----0-0-0-0-1--0-0-0-0-6-4-3-0-6-4-3-0-6-4-3-0----------|
      . . . .    . . . . . . . . . . . . . . . .                                   
                                                   
Riff 1-C                                                x4
|---------------------------------------------------------|
|---------------------------------------------------------|
|---------------------------------------------------------|
|-----3--4------------------------------------------------|
|--3--1--2----------3-------------------------------------|
|--1--------0-0-0-0-1--0-0-0-0-6-4-3-0-6-4-3-0-6-4-3-0----|
            . . . .    . . . . . . . . . . . . . . . .

Fill 1
|------------------------------|
|------------------------------|
|------------------------------|
|-----3--4x-------4--3x--------|
|--3--1--2x----4--2--1x----3x--|
|--1-----------2-----------1x--|


Riff 2-A                       x2                     x1
|----------------------------------|----------------------|
|----------------------------------|----------------------|
|----------------------------------|----------------------|
|----------------------------------|--5----6---------4----|
|----------------------------------|--3----4----5----2----|
|--0-0-0-0-0--0--0-0-0-0--0-0-0-0--|------------3---------|
   . . . . .  .  . . . .  . . . .

Riff 2-B        x12                    x2
|------------------|---------------------|
|------------------|---------------------|
|------------------|---------------------|
|------------------|--5----6--------4----|
|------------------|--3----4----5---2----|
|--0-0-0-0-0-0--0--|------------3--------|
   . . . . . .  .

Riff 3-A
|--------------------------------|
|--------------------------------|
|--------------------------------|
|---------------------------3-4--|
|-----------4-------------4-1-2--|
|--00000000-2----00000000-2------|

Riff 3-B
|----------------------------------|
|----------------------------------|
|----------------------------------|
|----------------------------------|
|-----------4----------------------|
|--00000000-2----3333444411112222--|

Riff 3-C           x3                   x1
|--------------------|--------------------|
|--------------------|--------------------|
|--------------------|--------------------|
|--------------------|--------------------|
|--------------------|--------------------|
|--3333444411112222--|--3333444411111111--|


Riff 3-D
|------------------------------------|
|------------------------------------|
|------------------------------------|
|------------------------------------|
|------------------------------------|
|--33333333444444441111111122222222--|


Riff 3-E
|------------------------------------|
|------------------------------------|
|------------------------------------|
|------------------------------------|
|--5-------6-------3-------4---------|
|--3-------4-------1-------2---------|


Riff 4-A                                
|-------------------------------------| 
|-------------------------------------| 
|-------------------------------------| 
|--------------------------------9----| 
|--10----8--7---10--9---12-10----7----| 
|---8----6--5----8--7---10--8---------| 

Riff 4 - B 
|-------------------------------------|
|-------------------------------------|
|-------------------------------------|
|-------------------------------------|
|--------------------------------7""--|
|---8""--6"-5""--8"-7""-10"-8""-------| 

Fill 3
|--------------------------|
|--------------------------|
|--------------------------|
|--------------------------|
|-10x----6x----3x----5x----|
|--8x----4x----1x----3x----|

Riff 5
|--------------------------------------------------------|
|--------------------------------------------------------|
|--------------------------------------------------------|Gtr 1
|--------------------------------------------------------|
|-------------------------3---------------------------5--|
|--0-0-0-0-0--0-0-0-0-0-0-1----0-0-0-0-0--0-0-0-0-0-0-3--|
   . . . . .  . . . . . .      . . . . .  . . . . . . 

|--------------------------------------------------------|
|--------------------------------------------------------|
|--------------------------------------------------------|Gtr 2
|--------------------------------------------------------|
|-------------------------3---------------------------5--|
|--0-0-0-0-0--0-0-0-0-0-0-1----0-0-8p6p5--0-0-0-0-0-0-3--|
   . . . . .  . . . . . .      . .        . . . . . .

|--------------------------------------------------------|
|--------------------------------------------------------|
|--------------------------------------------------------|Gtr 2
|--------------------------------------------------------|
|-------------------------3---------------------------ph-|
|--0-0-8p6p5--0-0-0-0-0-0-1----0-0-8p6p5--0-0-0-0-0-0-3~-|
   . .        . . . . . .      . .        . . . . . .

|--------------------------------------------------------|
|--------------------------------------------------------|
|--------------------------------------------------------|Gtr 2
|--------------------------------------------------------|
|-------------------------3---------------------------5--|
|--0-0-8p6p5--0-0-0-0-0-0-1----0-0-8p6p5--0-0-0-0-0-0-3--|
   . .        . . . . . .      . .        . . . . . .

Riff 6
|----------------------------------------|
|----------------------------------------|
|----------------------------------------|
|--9----8----------8\10--9----8----------|
|--7----6----------8\10--7----6----------|
|--7----6----------6\-8--7----6----------|


Riff 7
|--------------------------------------|
|--------------------------------------|
|--------------------------------------|
|----------------------------10-1010---|
|--12/11-----11/10-----------10-1010---|
|--10/-9-0-0--9/-8-0-0-0-0-0--8--8-8---|
         . .       . . . . . 

Fill 4 
|-------------------------|
|-------------------------|
|-------------------------|
|--9----8----------8--10--|
|--7----6----------8--10--|
|--7----6----------6---8--|


Lyrics by: Inverted

We're dying 
For are souls to learn
We're dying
For are souls to burn
We're dying

Check out my other tabs by Obituary, Deicide, Six Feet Under,
Catastrophic, Hypocrisy, Grave, Incantation and Death.
Tap to rate this tab
 
# A B C D E F G H I J K L M N O P Q R S T U V W X Y Z