Song name
# A B C D E F G H I J K L M N O P Q R S T U V W X Y Z

Obrint Pas - Viure tab

OBRINT PAS - VIURE


D5   (x577xx)
A5   (577xxx)
B5   (x244xx)
G5   (355xxx)



PART A (x2)

D5 // A5 //B5 // G5 


PART B (x2)

e|----------------2-2-2-2-3-3-3-3--------------------------------------------------------0-0-0-0-|
B|3-3-3-3-3-3-3-3--------------------------------3-3-3-3-2-2-2-2-0-0-0-0-0-0-0-0-3-3-3-3---------|
G|-------------------------------2-2-2-2-2-2-2-2-------------------------------------------------|
D|-----------------------------------------------------------------------------------------------|
A|-----------------------------------------------------------------------------------------------|
E|-----------------------------------------------------------------------------------------------|

e|--------------------------------|
B|----------------3-3-3-3-2-2-2-2-|
G|0-0-0-0-0-0-0-0-----------------|
D|--------------------------------|
A|--------------------------------|
E|--------------------------------|


PART A (x6)


PART C (x2)

e|-----------------------------------------------------------------------------------------------|
B|-----------------------------------------------------------------------------------------------|
G|----7-------7-------7-------7-------4-------4-------4-------4----------------------------------|
D|----7-------7-------7-------7-------4-------4-------4-------4-------7-------7-------7-------7--|
A|5-5-5---5-5-5---5-5-5---5-5-5---2-2-2---2-2-2---2-2-2---2-2-2-------7-------7-------7-------7--|
E|----------------------------------------------------------------5-5-5---5-5-5---5-5-5---5-5-5--|

e|------------------------------|
B|------------------------------|
G|------------------------------|
D|----5-------5-------5-------5-|
A|----5-------5-------5-------5-|
E|3-3-3---3-3-3---3-3-3---3-3-3-|


PART A (x6)


PART B (x2)


PART A (x2)


Final: D5



by: Berro!
dedicat a nes berros de Sant Joan!
Tap to rate this tab
# A B C D E F G H I J K L M N O P Q R S T U V W X Y Z