Guitaretab - guitar tabs
Song name
# A B C D E F G H I J K L M N O P Q R S T U V W X Y Z

Obrint Pas - Continuant Avancant tab

Obrint Pas official website: www.obrintpas.com

/ Slide
~ Vibratto
 Palm mute
# Stop

Note: Play it with heavy distortion.

Intro:

e |----------|---------|--------------|
B |----------|---------|--------------|
G |----------|---------|--------------| (Step 1)
D |99-97-775#|555-77-76|99-977-755-57#|
A |77-75-553#|333-55-54|77-755-533-35#|
E |----------|---------|--------------|

e |----------|---------|--------------|
B |----------|---------|--------------|
G |----------|---------|--------------| (Step 2)
D |99-97-775#|555-77-76|99-977-755-57~|
A |77-75-553#|333-55-54|77-755-533-35~|
E |----------|---------|--------------|

Verse:

e |-------------------|-------------------|
B |-------------------|-------------------|
G |-------------------|-------------------| (Step 1)
D |9999-7777-5555-7777|9999-7777-5555-7777|
A |7777-5555-3333-5555|7777-5555-3333-5555|
E |-------------------|-------------------|

e |-------------------|------------------------|
B |-------------------|------------------------|
G |-------------------|------------------------| (Step 2)
D |9999-7777-5555-7777|9999-7777-5555/7/5/7/5/9|
A |7777-5555-3333-5555|7777-5555-3333/5/3/5/3/7|
E |-------------------|------------------------|

Solo 1:

e |-------------------------------------------------------------------------|
B |-------------------------------------------------------------------------|
G |-----9-11-9-11-9--------------9-11-9-11-12-11-12-11-13/17-15-16-14-12-15-|
D |9-11-------------11-9-10-9-11--------------------------------------------|
A |-------------------------------------------------------------------------|
E |-------------------------------------------------------------------------|

e -------------------------------11-10-11-12-11/15~~~|
B -------------10-11-10-12-11-10---------------------|
G 12-9-11-12-9~--------------------------------------|
D ---------------------------------------------------|
A ---------------------------------------------------|
E ---------------------------------------------------|

Post-Solo 1:

e |~-----------------------|-----------------------|-----------------------|
B |------------------------|-----------------------|-----------------------|
G |------------------------|-----------------------|-----------------------|
D |-9-999-7-777-5-555-7-777|9-999-7-777-5-555-7-777|9-999-7-777-5-555-7-777|
A |-7-777-5-555-3-333-5-555|7-777-5-555-3-333-5-555|7-777-5-555-3-333-5-555|
E |------------------------|-----------------------|-----------------------|
[ Tab from: http://www.guitaretab.com/o/obrint-pas/66738.html ]
Now play this:

e |---------------------------------------------------------------------|
B |---------------------------------------------------------------------|
G |---------------------------------------------------------------------|
D |9-99-9-99-9-9-9-9/5-7-11-55-5-5-5-55/9-9-99-9-99-9-9-9-99/7-1-7-5-5-5|
A |7-77-7-77-7-7-7-7/3-5-9--33-3-3-3-33/7-7-77-7-77-7-7-7-77/5-3-5-3-3-3|
E |---------------------------------------------------------------------|
                                              

Go on on this:

e |-----------------------|
B |-----------------------|
G |-----------------------| x4
D |-----------------------|
A |9-999-7-777-5-555-7-777|
E |7-777-5-555-3-333-5-555|
              

Intro

Verse

Solo 2:

e |-------------------------------------------------------------------------|
B |-------------------------------------------------------------------------|
G |-----9-11-9-11-9--------------9-11-9-11-12-11-12-11-13/17-15-16-14-12-15-|
D |9-11-------------11-9-10-9-11--------------------------------------------|
A |-------------------------------------------------------------------------|
E |-------------------------------------------------------------------------|

e -------------------------------11-10-11-12-11/15~~~----------------------|
B -------------10-11-10-12-11-10-------------------------------------------|
G 12-9-11-12-9~-------------------------------------- (like the 1rst solo--|
D -------------------------------------------------------------------------| (go on on next)
A -------------------------------------------------------------------------|
E -------------------------------------------------------------------------|

e ~~/17-18-16-16/12--------------------------------------------------------|
B ------------------14-13-14-12-12/9-----------------14-12-14-12-14-12-14--|
G -----------------------------------12-9-7-9//////5-----------------------|
D -------------------------------------------------------------------------|
A -------------------------------------------------------------------------|
E -------------------------------------------------------------------------|

e ------------------------|
B 12-17----17----15-------|
G -----15----12----9/15~~~|
D ------------------------|
A ------------------------|
E ------------------------|

Post-Solo 2:

e |-------------------|
B |-------------------|
G |-------------------|
D |999-777-555-333#--9|
A |777-555-333-111///7|
E |-------------------|

Ending: Verse x 6

Enjoy the song ^^

zKM
Related for Continuant Avancant tab